  0
SECTION
  2
HEADER
  9
$ACADVER
  1
AC1018
  9
$ACADMAINTVER
 70
   104
  9
$DWGCODEPAGE
  3
ANSI_1252
  9
$LASTSAVEDBY
  1
lale_erhan
  9
$INSBASE
 10
0.0
 20
0.0
 30
0.0
  9
$EXTMIN
 10
-191.5381000000002
 20
-3711.3324
 30
0.0
  9
$EXTMAX
 10
-187.5380999999997
 20
1867.6676
 30
0.0
  9
$LIMMIN
 10
0.0
 20
0.0
  9
$LIMMAX
 10
12.0
 20
9.0
  9
$ORTHOMODE
 70
     0
  9
$REGENMODE
 70
     1
  9
$FILLMODE
 70
     1
  9
$QTEXTMODE
 70
     0
  9
$MIRRTEXT
 70
     1
  9
$LTSCALE
 40
1.0
  9
$ATTMODE
 70
     1
  9
$TEXTSIZE
 40
0.2
  9
$TRACEWID
 40
0.05
  9
$TEXTSTYLE
  7
Standard
  9
$CLAYER
  8
0
  9
$CELTYPE
  6
ByLayer
  9
$CECOLOR
 62
   256
  9
$CELTSCALE
 40
1.0
  9
$DISPSILH
 70
     0
  9
$DIMSCALE
 40
1.0
  9
$DIMASZ
 40
0.18
  9
$DIMEXO
 40
0.0625
  9
$DIMDLI
 40
0.38
  9
$DIMRND
 40
0.0
  9
$DIMDLE
 40
0.0
  9
$DIMEXE
 40
0.18
  9
$DIMTP
 40
0.0
  9
$DIMTM
 40
0.0
  9
$DIMTXT
 40
0.18
  9
$DIMCEN
 40
0.09
  9
$DIMTSZ
 40
0.0
  9
$DIMTOL
 70
     0
  9
$DIMLIM
 70
     0
  9
$DIMTIH
 70
     1
  9
$DIMTOH
 70
     1
  9
$DIMSE1
 70
     0
  9
$DIMSE2
 70
     0
  9
$DIMTAD
 70
     0
  9
$DIMZIN
 70
     0
  9
$DIMBLK
  1

  9
$DIMASO
 70
     1
  9
$DIMSHO
 70
     1
  9
$DIMPOST
  1

  9
$DIMAPOST
  1

  9
$DIMALT
 70
     0
  9
$DIMALTD
 70
     2
  9
$DIMALTF
 40
25.4
  9
$DIMLFAC
 40
1.0
  9
$DIMTOFL
 70
     0
  9
$DIMTVP
 40
0.0
  9
$DIMTIX
 70
     0
  9
$DIMSOXD
 70
     0
  9
$DIMSAH
 70
     0
  9
$DIMBLK1
  1

  9
$DIMBLK2
  1

  9
$DIMSTYLE
  2
Standard
  9
$DIMCLRD
 70
     0
  9
$DIMCLRE
 70
     0
  9
$DIMCLRT
 70
     0
  9
$DIMTFAC
 40
1.0
  9
$DIMGAP
 40
0.09
  9
$DIMJUST
 70
     0
  9
$DIMSD1
 70
     0
  9
$DIMSD2
 70
     0
  9
$DIMTOLJ
 70
     1
  9
$DIMTZIN
 70
     0
  9
$DIMALTZ
 70
     0
  9
$DIMALTTZ
 70
     0
  9
$DIMUPT
 70
     0
  9
$DIMDEC
 70
     4
  9
$DIMTDEC
 70
     4
  9
$DIMALTU
 70
     2
  9
$DIMALTTD
 70
     2
  9
$DIMTXSTY
  7
Standard
  9
$DIMAUNIT
 70
     0
  9
$DIMADEC
 70
     0
  9
$DIMALTRND
 40
0.0
  9
$DIMAZIN
 70
     0
  9
$DIMDSEP
 70
    46
  9
$DIMATFIT
 70
     3
  9
$DIMFRAC
 70
     0
  9
$DIMLDRBLK
  1

  9
$DIMLUNIT
 70
     2
  9
$DIMLWD
 70
    -2
  9
$DIMLWE
 70
    -2
  9
$DIMTMOVE
 70
     0
  9
$LUNITS
 70
     2
  9
$LUPREC
 70
     4
  9
$SKETCHINC
 40
0.1
  9
$FILLETRAD
 40
0.0
  9
$AUNITS
 70
     0
  9
$AUPREC
 70
     0
  9
$MENU
  1
.
  9
$ELEVATION
 40
0.0
  9
$PELEVATION
 40
0.0
  9
$THICKNESS
 40
0.0
  9
$LIMCHECK
 70
     0
  9
$CHAMFERA
 40
0.0
  9
$CHAMFERB
 40
0.0
  9
$CHAMFERC
 40
0.0
  9
$CHAMFERD
 40
0.0
  9
$SKPOLY
 70
     0
  9
$TDCREATE
 40
2459716.453333333
  9
$TDUCREATE
 40
2459716.370009386
  9
$TDUPDATE
 40
2460279.717129630
  9
$TDUUPDATE
 40
2460279.675462963
  9
$TDINDWG
 40
0.0059953819
  9
$TDUSRTIMER
 40
0.0059953819
  9
$USRTIMER
 70
     1
  9
$ANGBASE
 50
0.0
  9
$ANGDIR
 70
     0
  9
$PDMODE
 70
     0
  9
$PDSIZE
 40
0.0
  9
$PLINEWID
 40
0.0
  9
$SPLFRAME
 70
     0
  9
$SPLINETYPE
 70
     6
  9
$SPLINESEGS
 70
     8
  9
$HANDSEED
  5
ECB
  9
$SURFTAB1
 70
     6
  9
$SURFTAB2
 70
     6
  9
$SURFTYPE
 70
     6
  9
$SURFU
 70
     6
  9
$SURFV
 70
     6
  9
$UCSBASE
  2

  9
$UCSNAME
  2

  9
$UCSORG
 10
0.0
 20
0.0
 30
0.0
  9
$UCSXDIR
 10
1.0
 20
0.0
 30
0.0
  9
$UCSYDIR
 10
0.0
 20
1.0
 30
0.0
  9
$UCSORTHOREF
  2

  9
$UCSORTHOVIEW
 70
     0
  9
$UCSORGTOP
 10
0.0
 20
0.0
 30
0.0
  9
$UCSORGBOTTOM
 10
0.0
 20
0.0
 30
0.0
  9
$UCSORGLEFT
 10
0.0
 20
0.0
 30
0.0
  9
$UCSORGRIGHT
 10
0.0
 20
0.0
 30
0.0
  9
$UCSORGFRONT
 10
0.0
 20
0.0
 30
0.0
  9
$UCSORGBACK
 10
0.0
 20
0.0
 30
0.0
  9
$PUCSBASE
  2

  9
$PUCSNAME
  2

  9
$PUCSORG
 10
0.0
 20
0.0
 30
0.0
  9
$PUCSXDIR
 10
1.0
 20
0.0
 30
0.0
  9
$PUCSYDIR
 10
0.0
 20
1.0
 30
0.0
  9
$PUCSORTHOREF
  2

  9
$PUCSORTHOVIEW
 70
     0
  9
$PUCSORGTOP
 10
0.0
 20
0.0
 30
0.0
  9
$PUCSORGBOTTOM
 10
0.0
 20
0.0
 30
0.0
  9
$PUCSORGLEFT
 10
0.0
 20
0.0
 30
0.0
  9
$PUCSORGRIGHT
 10
0.0
 20
0.0
 30
0.0
  9
$PUCSORGFRONT
 10
0.0
 20
0.0
 30
0.0
  9
$PUCSORGBACK
 10
0.0
 20
0.0
 30
0.0
  9
$USERI1
 70
     0
  9
$USERI2
 70
     0
  9
$USERI3
 70
     0
  9
$USERI4
 70
     0
  9
$USERI5
 70
     0
  9
$USERR1
 40
0.0
  9
$USERR2
 40
0.0
  9
$USERR3
 40
0.0
  9
$USERR4
 40
0.0
  9
$USERR5
 40
0.0
  9
$WORLDVIEW
 70
     1
  9
$SHADEDGE
 70
     3
  9
$SHADEDIF
 70
    70
  9
$TILEMODE
 70
     1
  9
$MAXACTVP
 70
    64
  9
$PINSBASE
 10
0.0
 20
0.0
 30
0.0
  9
$PLIMCHECK
 70
     0
  9
$PEXTMIN
 10
1.000000000000000E+20
 20
1.000000000000000E+20
 30
1.000000000000000E+20
  9
$PEXTMAX
 10
-1.000000000000000E+20
 20
-1.000000000000000E+20
 30
-1.000000000000000E+20
  9
$PLIMMIN
 10
0.0
 20
0.0
  9
$PLIMMAX
 10
12.0
 20
9.0
  9
$UNITMODE
 70
     0
  9
$VISRETAIN
 70
     1
  9
$PLINEGEN
 70
     0
  9
$PSLTSCALE
 70
     1
  9
$TREEDEPTH
 70
  3020
  9
$CMLSTYLE
  2
Standard
  9
$CMLJUST
 70
     0
  9
$CMLSCALE
 40
1.0
  9
$PROXYGRAPHICS
 70
     1
  9
$MEASUREMENT
 70
     0
  9
$CELWEIGHT
370
    -1
  9
$ENDCAPS
280
     0
  9
$JOINSTYLE
280
     0
  9
$LWDISPLAY
290
     0
  9
$INSUNITS
 70
     4
  9
$HYPERLINKBASE
  1

  9
$STYLESHEET
  1

  9
$XEDIT
290
     1
  9
$CEPSNTYPE
380
     0
  9
$PSTYLEMODE
290
     1
  9
$FINGERPRINTGUID
  2
{F0F215DB-21A2-4D21-A2E2-4132786548FC}
  9
$VERSIONGUID
  2
{B7BA650E-6837-3B45-A370-A57E7E9758CA}
  9
$EXTNAMES
290
     1
  9
$PSVPSCALE
 40
0.0
  9
$OLESTARTUP
290
     0
  9
$SORTENTS
280
   127
  9
$INDEXCTL
280
     0
  9
$HIDETEXT
280
     1
  9
$XCLIPFRAME
290
     0
  9
$HALOGAP
280
     0
  9
$OBSCOLOR
 70
   257
  9
$OBSLTYPE
280
     0
  9
$INTERSECTIONDISPLAY
280
     0
  9
$INTERSECTIONCOLOR
 70
   257
  9
$DIMASSOC
280
     2
  9
$PROJECTNAME
  1

  0
ENDSEC
  0
SECTION
  2
CLASSES
  0
CLASS
  1
ACDBDICTIONARYWDFLT
  2
AcDbDictionaryWithDefault
  3
ObjectDBX Classes
 90
        0
 91
        1
280
     0
281
     0
  0
CLASS
  1
VISUALSTYLE
  2
AcDbVisualStyle
  3
ObjectDBX Classes
 90
     4095
 91
       24
280
     0
281
     0
  0
CLASS
  1
MATERIAL
  2
AcDbMaterial
  3
ObjectDBX Classes
 90
     1153
 91
        3
280
     0
281
     0
  0
CLASS
  1
SCALE
  2
AcDbScale
  3
ObjectDBX Classes
 90
     1153
 91
       17
280
     0
281
     0
  0
CLASS
  1
TABLESTYLE
  2
AcDbTableStyle
  3
ObjectDBX Classes
 90
     4095
 91
        1
280
     0
281
     0
  0
CLASS
  1
MLEADERSTYLE
  2
AcDbMLeaderStyle
  3
ACDB_MLEADERSTYLE_CLASS
 90
     4095
 91
        1
280
     0
281
     0
  0
CLASS
  1
SUN
  2
AcDbSun
  3
SCENEOE
 90
     1153
 91
        0
280
     0
281
     0
  0
CLASS
  1
DICTIONARYVAR
  2
AcDbDictionaryVar
  3
ObjectDBX Classes
 90
        0
 91
       14
280
     0
281
     0
  0
CLASS
  1
CELLSTYLEMAP
  2
AcDbCellStyleMap
  3
ObjectDBX Classes
 90
     1152
 91
        2
280
     0
281
     0
  0
CLASS
  1
ACDBSECTIONVIEWSTYLE
  2
AcDbSectionViewStyle
  3
ObjectDBX Classes
 90
     1025
 91
        1
280
     0
281
     0
  0
CLASS
  1
ACDBDETAILVIEWSTYLE
  2
AcDbDetailViewStyle
  3
ObjectDBX Classes
 90
     1025
 91
        1
280
     0
281
     0
  0
CLASS
  1
DIMASSOC
  2
AcDbDimAssoc
  3
"AcDbDimAssoc|Product Desc:     AcDim ARX App For Dimension|Company:          Autodesk, Inc.|WEB Address:      www.autodesk.com"
 90
        0
 91
        0
280
     0
281
     0
  0
ENDSEC
  0
SECTION
  2
TABLES
  0
TABLE
  2
VPORT
  5
8
330
0
100
AcDbSymbolTable
 70
     1
  0
VPORT
  5
29
330
8
100
AcDbSymbolTableRecord
100
AcDbViewportTableRecord
  2
*Active
 70
     0
 10
0.0
 20
0.0
 11
1.0
 21
1.0
 12
16188.66776939618
 22
-4546.6887750366
 13
0.0
 23
0.0
 14
0.5
 24
0.5
 15
0.5
 25
0.5
 16
0.0
 26
0.0
 36
1.0
 17
0.0
 27
0.0
 37
0.0
 40
33742.31194962697
 41
1.886982845610494
 42
50.0
 43
0.0
 44
0.0
 50
0.0
 51
0.0
 71
     0
 72
   100
 73
     1
 74
     3
 75
     0
 76
     0
 77
     0
 78
     0
281
     0
 65
     1
110
0.0
120
0.0
130
0.0
111
1.0
121
0.0
131
0.0
112
0.0
122
1.0
132
0.0
 79
     0
146
0.0
1001
ACAD_NAV_VCDISPLAY
1070
     3
  0
ENDTAB
  0
TABLE
  2
LTYPE
  5
5
330
0
100
AcDbSymbolTable
 70
     1
  0
LTYPE
  5
14
330
5
100
AcDbSymbolTableRecord
100
AcDbLinetypeTableRecord
  2
ByBlock
 70
     0
  3

 72
    65
 73
     0
 40
0.0
  0
LTYPE
  5
15
330
5
100
AcDbSymbolTableRecord
100
AcDbLinetypeTableRecord
  2
ByLayer
 70
     0
  3

 72
    65
 73
     0
 40
0.0
  0
LTYPE
  5
16
330
5
100
AcDbSymbolTableRecord
100
AcDbLinetypeTableRecord
  2
Continuous
 70
     0
  3
Solid line
 72
    65
 73
     0
 40
0.0
  0
ENDTAB
  0
TABLE
  2
LAYER
  5
2
102
{ACAD_XDICTIONARY
360
E3B
102
}
330
0
100
AcDbSymbolTable
 70
     2
  0
LAYER
  5
10
102
{ACAD_XDICTIONARY
360
502
102
}
330
2
100
AcDbSymbolTableRecord
100
AcDbLayerTableRecord
  2
0
 70
     0
 62
     7
  6
Continuous
370
    -3
390
F
  0
LAYER
  5
E0E
330
2
100
AcDbSymbolTableRecord
100
AcDbLayerTableRecord
  2
Defpoints
 70
     0
 62
     7
  6
Continuous
290
     0
370
    -3
390
F
  0
ENDTAB
  0
TABLE
  2
STYLE
  5
3
330
0
100
AcDbSymbolTable
 70
     1
  0
STYLE
  5
11
330
3
100
AcDbSymbolTableRecord
100
AcDbTextStyleTableRecord
  2
Standard
 70
     0
 40
0.0
 41
1.0
 50
0.0
 71
     0
 42
0.2
  3
txt
  4

  0
ENDTAB
  0
TABLE
  2
VIEW
  5
6
330
0
100
AcDbSymbolTable
 70
     0
  0
ENDTAB
  0
TABLE
  2
UCS
  5
7
330
0
100
AcDbSymbolTable
 70
     0
  0
ENDTAB
  0
TABLE
  2
APPID
  5
9
330
0
100
AcDbSymbolTable
 70
     7
  0
APPID
  5
12
330
9
100
AcDbSymbolTableRecord
100
AcDbRegAppTableRecord
  2
ACAD
 70
     0
  0
APPID
  5
5E
330
9
100
AcDbSymbolTableRecord
100
AcDbRegAppTableRecord
  2
ODA
 70
     0
  0
APPID
  5
4F2
330
9
100
AcDbSymbolTableRecord
100
AcDbRegAppTableRecord
  2
ACAD_MLEADERVER
 70
     0
  0
APPID
  5
50F
330
9
100
AcDbSymbolTableRecord
100
AcDbRegAppTableRecord
  2
ACAD_NAV_VCDISPLAY
 70
     0
  0
APPID
  5
9AD
330
9
100
AcDbSymbolTableRecord
100
AcDbRegAppTableRecord
  2
AcAecLayerStandard
 70
     0
  0
APPID
  5
9AE
330
9
100
AcDbSymbolTableRecord
100
AcDbRegAppTableRecord
  2
AcCmTransparency
 70
     0
  0
APPID
  5
E0C
330
9
100
AcDbSymbolTableRecord
100
AcDbRegAppTableRecord
  2
ACAD_DSTYLE_DIMRADIAL_EXTENSION
 70
     0
  0
ENDTAB
  0
TABLE
  2
DIMSTYLE
  5
A
330
0
100
AcDbSymbolTable
 70
     1
100
AcDbDimStyleTable
 71
     1
340
27
  0
DIMSTYLE
105
27
330
A
100
AcDbSymbolTableRecord
100
AcDbDimStyleTableRecord
  2
Standard
 70
     0
340
11
  0
ENDTAB
  0
TABLE
  2
BLOCK_RECORD
  5
1
330
0
100
AcDbSymbolTable
 70
     3
  0
BLOCK_RECORD
  5
1F
330
1
100
AcDbSymbolTableRecord
100
AcDbBlockTableRecord
  2
*Model_Space
340
22
  0
BLOCK_RECORD
  5
1B
330
1
100
AcDbSymbolTableRecord
100
AcDbBlockTableRecord
  2
*Paper_Space
340
1E
  0
BLOCK_RECORD
  5
23
330
1
100
AcDbSymbolTableRecord
100
AcDbBlockTableRecord
  2
*Paper_Space0
340
26
  0
BLOCK_RECORD
  5
E0F
330
1
100
AcDbSymbolTableRecord
100
AcDbBlockTableRecord
  2
*D1
340
0
  0
BLOCK_RECORD
  5
E25
330
1
100
AcDbSymbolTableRecord
100
AcDbBlockTableRecord
  2
*D2
340
0
  0
ENDTAB
  0
ENDSEC
  0
SECTION
  2
BLOCKS
  0
BLOCK
  5
20
330
1F
100
AcDbEntity
  8
0
100
AcDbBlockBegin
  2
*Model_Space
 70
     0
 10
0.0
 20
0.0
 30
0.0
  3
*Model_Space
  1

  0
ENDBLK
  5
21
330
1F
100
AcDbEntity
  8
0
100
AcDbBlockEnd
  0
BLOCK
  5
1C
330
1B
100
AcDbEntity
 67
     1
  8
0
100
AcDbBlockBegin
  2
*Paper_Space
 70
     0
 10
0.0
 20
0.0
 30
0.0
  3
*Paper_Space
  1

  0
ENDBLK
  5
1D
330
1B
100
AcDbEntity
 67
     1
  8
0
100
AcDbBlockEnd
  0
BLOCK
  5
24
330
23
100
AcDbEntity
 67
     1
  8
0
100
AcDbBlockBegin
  2
*Paper_Space0
 70
     0
 10
0.0
 20
0.0
 30
0.0
  3
*Paper_Space0
  1

  0
ENDBLK
  5
25
330
23
100
AcDbEntity
 67
     1
  8
0
100
AcDbBlockEnd
  0
BLOCK
  5
E10
330
E0F
100
AcDbEntity
  8
0
100
AcDbBlockBegin
  2
*D1
 70
     1
 10
0.0
 20
0.0
 30
0.0
  3
*D1
  1

  0
LINE
  5
E1B
330
E0F
100
AcDbEntity
  8
0
 62
     0
440
 16777216
370
    -2
100
AcDbLine
 10
-185.1857325207594
 20
1866.861498223268
 30
0.0
 11
-185.3657325207598
 21
1866.861498223268
 31
0.0
  0
LINE
  5
E1C
330
E0F
100
AcDbEntity
  8
0
 62
     0
440
 16777216
370
    -2
100
AcDbLine
 10
-185.3657325207598
 20
1866.861498223268
 30
0.0
 11
-187.4422159024416
 21
1866.267324811561
 31
0.0
  0
MTEXT
  5
E1D
102
{ACAD_XDICTIONARY
360
E85
102
}
330
E0F
100
AcDbEntity
  8
0
 62
     0
440
 16777216
100
AcDbMText
 10
-184.6157325207595
 20
1866.861498223268
 30
0.0
 40
0.18
 41
0.0
 71
     5
 72
     1
  1
\A1;\U+22054.0000
 73
     1
 44
1.0
  0
SOLID
  5
E1E
330
E0F
100
AcDbEntity
  8
0
 62
     0
440
 16777216
100
AcDbTrace
 10
-187.4504689961787
 20
1866.29616725327
 30
0.0
 11
-187.4339628087046
 21
1866.238482369851
 31
0.0
 12
-187.6152705526988
 22
1866.217806249139
 32
0.0
 13
-187.6152705526988
 23
1866.217806249139
 33
0.0
  0
LINE
  5
E1F
330
E0F
100
AcDbEntity
  8
0
 62
     0
440
 16777216
370
    -2
100
AcDbLine
 10
-189.6280999999999
 20
1865.6676
 30
0.0
 11
-189.4480999999999
 21
1865.6676
 31
0.0
  0
LINE
  5
E20
330
E0F
100
AcDbEntity
  8
0
 62
     0
440
 16777216
370
    -2
100
AcDbLine
 10
-189.5381
 20
1865.577600000001
 30
0.0
 11
-189.5381
 21
1865.7576
 31
0.0
  0
POINT
  5
E21
330
E0F
100
AcDbEntity
  8
Defpoints
 62
     0
440
 16777216
100
AcDbPoint
 10
-187.6152705526988
 20
1866.217806249139
 30
0.0
  0
POINT
  5
E22
330
E0F
100
AcDbEntity
  8
Defpoints
 62
     0
440
 16777216
100
AcDbPoint
 10
-191.4609294473011
 20
1865.117393750861
 30
0.0
  0
ENDBLK
  5
E11
330
E0F
100
AcDbEntity
  8
0
100
AcDbBlockEnd
  0
BLOCK
  5
E26
330
E25
100
AcDbEntity
  8
0
100
AcDbBlockBegin
  2
*D2
 70
     1
 10
0.0
 20
0.0
 30
0.0
  3
*D2
  1

  0
LINE
  5
E30
330
E25
100
AcDbEntity
  8
0
 62
     0
440
 16777216
370
    -2
100
AcDbLine
 10
-186.1379259781677
 20
-3710.358297588976
 30
0.0
 11
-188.8646154439896
 21
-3710.738492850031
 31
0.0
  0
MTEXT
  5
E31
102
{ACAD_XDICTIONARY
360
E87
102
}
330
E25
100
AcDbEntity
  8
0
 62
     0
440
 16777216
100
AcDbMText
 10
-185.5979259781676
 20
-3710.358297588976
 30
0.0
 40
0.18
 41
0.0
 71
     5
 72
     1
  1
\A1;\U+22051.0000
 73
     1
 44
1.0
  0
SOLID
  5
E32
330
E25
100
AcDbEntity
  8
0
 62
     0
440
 16777216
100
AcDbTrace
 10
-188.8687584064884
 20
-3710.708780296089
 30
0.0
 11
-188.860472481491
 21
-3710.768205403973
 31
0.0
 12
-189.0428907676395
 22
-3710.763350625022
 32
0.0
 13
-189.0428907676395
 23
-3710.763350625022
 33
0.0
  0
LINE
  5
E33
330
E25
100
AcDbEntity
  8
0
 62
     0
440
 16777216
370
    -2
100
AcDbLine
 10
-189.6281
 20
-3710.832400000001
 30
0.0
 11
-189.4481
 21
-3710.832400000001
 31
0.0
  0
LINE
  5
E34
330
E25
100
AcDbEntity
  8
0
 62
     0
440
 16777216
370
    -2
100
AcDbLine
 10
-189.5381
 20
-3710.922400000001
 30
0.0
 11
-189.5381
 21
-3710.742400000001
 31
0.0
  0
POINT
  5
E35
330
E25
100
AcDbEntity
  8
Defpoints
 62
     0
440
 16777216
100
AcDbPoint
 10
-189.0428907676395
 20
-3710.763350625022
 30
0.0
  0
POINT
  5
E36
330
E25
100
AcDbEntity
  8
Defpoints
 62
     0
440
 16777216
100
AcDbPoint
 10
-190.0333092323604
 20
-3710.901449374978
 30
0.0
  0
ENDBLK
  5
E27
330
E25
100
AcDbEntity
  8
0
100
AcDbBlockEnd
  0
ENDSEC
  0
SECTION
  2
ENTITIES
  0
CIRCLE
  5
9AF
330
1F
100
AcDbEntity
  8
0
100
AcDbCircle
 10
-189.5381
 20
-2313.3336
 30
0.0
 40
2.0
  0
CIRCLE
  5
9B0
330
1F
100
AcDbEntity
  8
0
100
AcDbCircle
 10
-189.5381
 20
-2308.3348
 30
0.0
 40
2.0
  0
CIRCLE
  5
9B1
330
1F
100
AcDbEntity
  8
0
100
AcDbCircle
 10
-189.5381
 20
-2303.336
 30
0.0
 40
2.0
  0
CIRCLE
  5
9B2
330
1F
100
AcDbEntity
  8
0
100
AcDbCircle
 10
-189.5381
 20
-2298.3372
 30
0.0
 40
2.0
  0
CIRCLE
  5
9B3
330
1F
100
AcDbEntity
  8
0
100
AcDbCircle
 10
-189.5381
 20
-2293.3384
 30
0.0
 40
2.0
  0
CIRCLE
  5
9B4
330
1F
100
AcDbEntity
  8
0
100
AcDbCircle
 10
-189.5381
 20
-2288.3396
 30
0.0
 40
2.0
  0
CIRCLE
  5
9B5
330
1F
100
AcDbEntity
  8
0
100
AcDbCircle
 10
-189.5381
 20
-2283.3408
 30
0.0
 40
2.0
  0
CIRCLE
  5
9B6
330
1F
100
AcDbEntity
  8
0
100
AcDbCircle
 10
-189.5381
 20
-2278.342
 30
0.0
 40
2.0
  0
CIRCLE
  5
9B7
330
1F
100
AcDbEntity
  8
0
100
AcDbCircle
 10
-189.5381
 20
-2273.3432
 30
0.0
 40
2.0
  0
CIRCLE
  5
9B8
330
1F
100
AcDbEntity
  8
0
100
AcDbCircle
 10
-189.5381
 20
-2268.3443
 30
0.0
 40
2.0
  0
CIRCLE
  5
9B9
330
1F
100
AcDbEntity
  8
0
100
AcDbCircle
 10
-189.5381
 20
-2263.3455
 30
0.0
 40
2.0
  0
CIRCLE
  5
9BA
330
1F
100
AcDbEntity
  8
0
100
AcDbCircle
 10
-189.5381
 20
-2258.3467
 30
0.0
 40
2.0
  0
CIRCLE
  5
9BB
330
1F
100
AcDbEntity
  8
0
100
AcDbCircle
 10
-189.5381
 20
-2253.3479
 30
0.0
 40
2.0
  0
CIRCLE
  5
9BC
330
1F
100
AcDbEntity
  8
0
100
AcDbCircle
 10
-189.5381
 20
-2248.3491
 30
0.0
 40
2.0
  0
CIRCLE
  5
9BD
330
1F
100
AcDbEntity
  8
0
100
AcDbCircle
 10
-189.5381
 20
-2243.3503
 30
0.0
 40
2.0
  0
CIRCLE
  5
9BE
330
1F
100
AcDbEntity
  8
0
100
AcDbCircle
 10
-189.5381
 20
-2238.3515
 30
0.0
 40
2.0
  0
CIRCLE
  5
9BF
330
1F
100
AcDbEntity
  8
0
100
AcDbCircle
 10
-189.5381
 20
-2233.3527
 30
0.0
 40
2.0
  0
CIRCLE
  5
9C0
330
1F
100
AcDbEntity
  8
0
100
AcDbCircle
 10
-189.5381
 20
-2228.3539
 30
0.0
 40
2.0
  0
CIRCLE
  5
9C1
330
1F
100
AcDbEntity
  8
0
100
AcDbCircle
 10
-189.5381
 20
-2223.3551
 30
0.0
 40
2.0
  0
CIRCLE
  5
9C2
330
1F
100
AcDbEntity
  8
0
100
AcDbCircle
 10
-189.5381
 20
-2218.3563
 30
0.0
 40
2.0
  0
CIRCLE
  5
9C3
330
1F
100
AcDbEntity
  8
0
100
AcDbCircle
 10
-189.5381
 20
-2213.3575
 30
0.0
 40
2.0
  0
CIRCLE
  5
9C4
330
1F
100
AcDbEntity
  8
0
100
AcDbCircle
 10
-189.5381
 20
-2208.3587
 30
0.0
 40
2.0
  0
CIRCLE
  5
9C5
330
1F
100
AcDbEntity
  8
0
100
AcDbCircle
 10
-189.5381
 20
-2203.3599
 30
0.0
 40
2.0
  0
CIRCLE
  5
9C6
330
1F
100
AcDbEntity
  8
0
100
AcDbCircle
 10
-189.5381
 20
-2198.3611
 30
0.0
 40
2.0
  0
CIRCLE
  5
9C7
330
1F
100
AcDbEntity
  8
0
100
AcDbCircle
 10
-189.5381
 20
-2193.3623
 30
0.0
 40
2.0
  0
CIRCLE
  5
9C8
330
1F
100
AcDbEntity
  8
0
100
AcDbCircle
 10
-189.5381
 20
-2188.3635
 30
0.0
 40
2.0
  0
CIRCLE
  5
9C9
330
1F
100
AcDbEntity
  8
0
100
AcDbCircle
 10
-189.5381
 20
-2183.3647
 30
0.0
 40
2.0
  0
CIRCLE
  5
9CA
330
1F
100
AcDbEntity
  8
0
100
AcDbCircle
 10
-189.5381
 20
-2178.3659
 30
0.0
 40
2.0
  0
CIRCLE
  5
9CB
330
1F
100
AcDbEntity
  8
0
100
AcDbCircle
 10
-189.5381
 20
-2173.367
 30
0.0
 40
2.0
  0
CIRCLE
  5
9CC
330
1F
100
AcDbEntity
  8
0
100
AcDbCircle
 10
-189.5381
 20
-2168.3682
 30
0.0
 40
2.0
  0
CIRCLE
  5
9CD
330
1F
100
AcDbEntity
  8
0
100
AcDbCircle
 10
-189.5381
 20
-2163.3694
 30
0.0
 40
2.0
  0
CIRCLE
  5
9CE
330
1F
100
AcDbEntity
  8
0
100
AcDbCircle
 10
-189.5381
 20
-2158.3706
 30
0.0
 40
2.0
  0
CIRCLE
  5
9CF
330
1F
100
AcDbEntity
  8
0
100
AcDbCircle
 10
-189.5381
 20
-2153.3718
 30
0.0
 40
2.0
  0
CIRCLE
  5
9D0
330
1F
100
AcDbEntity
  8
0
100
AcDbCircle
 10
-189.5381
 20
-2148.373
 30
0.0
 40
2.0
  0
CIRCLE
  5
9D1
330
1F
100
AcDbEntity
  8
0
100
AcDbCircle
 10
-189.5381
 20
-2143.3742
 30
0.0
 40
2.0
  0
CIRCLE
  5
9D2
330
1F
100
AcDbEntity
  8
0
100
AcDbCircle
 10
-189.5381
 20
-2138.3754
 30
0.0
 40
2.0
  0
CIRCLE
  5
9D3
330
1F
100
AcDbEntity
  8
0
100
AcDbCircle
 10
-189.5381
 20
-2133.3766
 30
0.0
 40
2.0
  0
CIRCLE
  5
9D4
330
1F
100
AcDbEntity
  8
0
100
AcDbCircle
 10
-189.5381
 20
-2128.3778
 30
0.0
 40
2.0
  0
CIRCLE
  5
9D5
330
1F
100
AcDbEntity
  8
0
100
AcDbCircle
 10
-189.5381
 20
-2123.379
 30
0.0
 40
2.0
  0
CIRCLE
  5
9D6
330
1F
100
AcDbEntity
  8
0
100
AcDbCircle
 10
-189.5381
 20
-2118.3802
 30
0.0
 40
2.0
  0
CIRCLE
  5
9D7
330
1F
100
AcDbEntity
  8
0
100
AcDbCircle
 10
-189.5381
 20
-2113.3814
 30
0.0
 40
2.0
  0
CIRCLE
  5
9D8
330
1F
100
AcDbEntity
  8
0
100
AcDbCircle
 10
-189.5381
 20
-2108.3826
 30
0.0
 40
2.0
  0
CIRCLE
  5
9D9
330
1F
100
AcDbEntity
  8
0
100
AcDbCircle
 10
-189.5381
 20
-2103.3838
 30
0.0
 40
2.0
  0
CIRCLE
  5
9DA
330
1F
100
AcDbEntity
  8
0
100
AcDbCircle
 10
-189.5381
 20
-2098.385000000001
 30
0.0
 40
2.0
  0
CIRCLE
  5
9DB
330
1F
100
AcDbEntity
  8
0
100
AcDbCircle
 10
-189.5381
 20
-2093.3862
 30
0.0
 40
2.0
  0
CIRCLE
  5
9DC
330
1F
100
AcDbEntity
  8
0
100
AcDbCircle
 10
-189.5381
 20
-2088.3874
 30
0.0
 40
2.0
  0
CIRCLE
  5
9DD
330
1F
100
AcDbEntity
  8
0
100
AcDbCircle
 10
-189.5381
 20
-2083.388600000001
 30
0.0
 40
2.0
  0
CIRCLE
  5
9DE
330
1F
100
AcDbEntity
  8
0
100
AcDbCircle
 10
-189.5381
 20
-2078.3897
 30
0.0
 40
2.0
  0
CIRCLE
  5
9DF
330
1F
100
AcDbEntity
  8
0
100
AcDbCircle
 10
-189.5381
 20
-2073.3909
 30
0.0
 40
2.0
  0
CIRCLE
  5
9E0
330
1F
100
AcDbEntity
  8
0
100
AcDbCircle
 10
-189.5381
 20
-2068.3921
 30
0.0
 40
2.0
  0
CIRCLE
  5
9E1
330
1F
100
AcDbEntity
  8
0
100
AcDbCircle
 10
-189.5381
 20
-2063.3933
 30
0.0
 40
2.0
  0
CIRCLE
  5
9E2
330
1F
100
AcDbEntity
  8
0
100
AcDbCircle
 10
-189.5381
 20
-2058.3945
 30
0.0
 40
2.0
  0
CIRCLE
  5
9E3
330
1F
100
AcDbEntity
  8
0
100
AcDbCircle
 10
-189.5381
 20
-2053.3957
 30
0.0
 40
2.0
  0
CIRCLE
  5
9E4
330
1F
100
AcDbEntity
  8
0
100
AcDbCircle
 10
-189.5381
 20
-2048.3969
 30
0.0
 40
2.000000000000055
  0
CIRCLE
  5
9E5
330
1F
100
AcDbEntity
  8
0
100
AcDbCircle
 10
-189.5381
 20
-2043.3981
 30
0.0
 40
2.0
  0
CIRCLE
  5
9E6
330
1F
100
AcDbEntity
  8
0
100
AcDbCircle
 10
-189.5381
 20
-2038.3993
 30
0.0
 40
2.0
  0
CIRCLE
  5
9E7
330
1F
100
AcDbEntity
  8
0
100
AcDbCircle
 10
-189.5381
 20
-2033.4005
 30
0.0
 40
2.0
  0
CIRCLE
  5
9E8
330
1F
100
AcDbEntity
  8
0
100
AcDbCircle
 10
-189.5381
 20
-2028.4017
 30
0.0
 40
2.0
  0
CIRCLE
  5
9E9
330
1F
100
AcDbEntity
  8
0
100
AcDbCircle
 10
-189.5381
 20
-2023.4029
 30
0.0
 40
2.0
  0
CIRCLE
  5
9EA
330
1F
100
AcDbEntity
  8
0
100
AcDbCircle
 10
-189.5381
 20
-2018.4041
 30
0.0
 40
2.0
  0
CIRCLE
  5
9EB
330
1F
100
AcDbEntity
  8
0
100
AcDbCircle
 10
-189.5381
 20
-2013.4053
 30
0.0
 40
2.0
  0
CIRCLE
  5
9EC
330
1F
100
AcDbEntity
  8
0
100
AcDbCircle
 10
-189.5381
 20
-2008.4065
 30
0.0
 40
2.0
  0
CIRCLE
  5
9ED
330
1F
100
AcDbEntity
  8
0
100
AcDbCircle
 10
-189.5381
 20
-2003.4077
 30
0.0
 40
2.0
  0
CIRCLE
  5
9EE
330
1F
100
AcDbEntity
  8
0
100
AcDbCircle
 10
-189.5381
 20
-1998.4089
 30
0.0
 40
2.0
  0
CIRCLE
  5
9EF
330
1F
100
AcDbEntity
  8
0
100
AcDbCircle
 10
-189.5381
 20
-1993.4101
 30
0.0
 40
2.0
  0
CIRCLE
  5
9F0
330
1F
100
AcDbEntity
  8
0
100
AcDbCircle
 10
-189.5381
 20
-1988.4113
 30
0.0
 40
2.0
  0
CIRCLE
  5
9F1
330
1F
100
AcDbEntity
  8
0
100
AcDbCircle
 10
-189.5381
 20
-1983.4124
 30
0.0
 40
2.0
  0
CIRCLE
  5
9F2
330
1F
100
AcDbEntity
  8
0
100
AcDbCircle
 10
-189.5381
 20
-1978.4136
 30
0.0
 40
2.0
  0
CIRCLE
  5
9F3
330
1F
100
AcDbEntity
  8
0
100
AcDbCircle
 10
-189.5381
 20
-1973.4148
 30
0.0
 40
2.0
  0
CIRCLE
  5
9F4
330
1F
100
AcDbEntity
  8
0
100
AcDbCircle
 10
-189.5381
 20
-1968.416
 30
0.0
 40
2.0
  0
CIRCLE
  5
9F5
330
1F
100
AcDbEntity
  8
0
100
AcDbCircle
 10
-189.5381
 20
-1963.4172
 30
0.0
 40
2.0
  0
CIRCLE
  5
9F6
330
1F
100
AcDbEntity
  8
0
100
AcDbCircle
 10
-189.5381
 20
-1958.4184
 30
0.0
 40
2.0
  0
CIRCLE
  5
9F7
330
1F
100
AcDbEntity
  8
0
100
AcDbCircle
 10
-189.5381
 20
-1953.4196
 30
0.0
 40
2.0
  0
CIRCLE
  5
9F8
330
1F
100
AcDbEntity
  8
0
100
AcDbCircle
 10
-189.5381
 20
-1948.4208
 30
0.0
 40
2.0
  0
CIRCLE
  5
9F9
330
1F
100
AcDbEntity
  8
0
100
AcDbCircle
 10
-189.5381
 20
-1943.422
 30
0.0
 40
2.0
  0
CIRCLE
  5
9FA
330
1F
100
AcDbEntity
  8
0
100
AcDbCircle
 10
-189.5381
 20
-1938.4232
 30
0.0
 40
2.0
  0
CIRCLE
  5
9FB
330
1F
100
AcDbEntity
  8
0
100
AcDbCircle
 10
-189.5381
 20
-1933.4244
 30
0.0
 40
2.0
  0
CIRCLE
  5
9FC
330
1F
100
AcDbEntity
  8
0
100
AcDbCircle
 10
-189.5381
 20
-1928.4256
 30
0.0
 40
2.0
  0
CIRCLE
  5
9FD
330
1F
100
AcDbEntity
  8
0
100
AcDbCircle
 10
-189.5381
 20
-1923.4268
 30
0.0
 40
2.0
  0
CIRCLE
  5
9FE
330
1F
100
AcDbEntity
  8
0
100
AcDbCircle
 10
-189.5381
 20
-1918.427999999999
 30
0.0
 40
2.000000000000226
  0
CIRCLE
  5
9FF
330
1F
100
AcDbEntity
  8
0
100
AcDbCircle
 10
-189.5381
 20
-1913.4292
 30
0.0
 40
2.0
  0
CIRCLE
  5
A00
330
1F
100
AcDbEntity
  8
0
100
AcDbCircle
 10
-189.5381
 20
-1908.4304
 30
0.0
 40
2.0
  0
CIRCLE
  5
A01
330
1F
100
AcDbEntity
  8
0
100
AcDbCircle
 10
-189.5381
 20
-1903.4316
 30
0.0
 40
2.0
  0
CIRCLE
  5
A02
330
1F
100
AcDbEntity
  8
0
100
AcDbCircle
 10
-189.5381
 20
-1898.4328
 30
0.0
 40
2.0
  0
CIRCLE
  5
A03
330
1F
100
AcDbEntity
  8
0
100
AcDbCircle
 10
-189.5381
 20
-1893.434
 30
0.0
 40
2.0
  0
CIRCLE
  5
A04
330
1F
100
AcDbEntity
  8
0
100
AcDbCircle
 10
-189.5381
 20
-1888.4351
 30
0.0
 40
2.0
  0
CIRCLE
  5
A05
330
1F
100
AcDbEntity
  8
0
100
AcDbCircle
 10
-189.5381
 20
-1883.4363
 30
0.0
 40
2.0
  0
CIRCLE
  5
A06
330
1F
100
AcDbEntity
  8
0
100
AcDbCircle
 10
-189.5381
 20
-1878.4375
 30
0.0
 40
2.0
  0
CIRCLE
  5
A07
330
1F
100
AcDbEntity
  8
0
100
AcDbCircle
 10
-189.5381
 20
-1873.4387
 30
0.0
 40
2.0
  0
CIRCLE
  5
A08
330
1F
100
AcDbEntity
  8
0
100
AcDbCircle
 10
-189.5381
 20
-1868.4399
 30
0.0
 40
2.0
  0
CIRCLE
  5
A09
330
1F
100
AcDbEntity
  8
0
100
AcDbCircle
 10
-189.5381
 20
-1863.4411
 30
0.0
 40
2.0
  0
CIRCLE
  5
A0A
330
1F
100
AcDbEntity
  8
0
100
AcDbCircle
 10
-189.5381
 20
-1858.4423
 30
0.0
 40
2.0
  0
CIRCLE
  5
A0B
330
1F
100
AcDbEntity
  8
0
100
AcDbCircle
 10
-189.5381
 20
-1853.4435
 30
0.0
 40
2.0
  0
CIRCLE
  5
A0C
330
1F
100
AcDbEntity
  8
0
100
AcDbCircle
 10
-189.5381
 20
-1848.4447
 30
0.0
 40
2.0
  0
CIRCLE
  5
A0D
330
1F
100
AcDbEntity
  8
0
100
AcDbCircle
 10
-189.5381
 20
-1843.4459
 30
0.0
 40
2.0
  0
CIRCLE
  5
A0E
330
1F
100
AcDbEntity
  8
0
100
AcDbCircle
 10
-189.5381
 20
-1838.4471
 30
0.0
 40
2.0
  0
CIRCLE
  5
A0F
330
1F
100
AcDbEntity
  8
0
100
AcDbCircle
 10
-189.5381
 20
-1833.4483
 30
0.0
 40
2.0
  0
CIRCLE
  5
A10
330
1F
100
AcDbEntity
  8
0
100
AcDbCircle
 10
-189.5381
 20
-1828.4495
 30
0.0
 40
2.0
  0
CIRCLE
  5
A11
330
1F
100
AcDbEntity
  8
0
100
AcDbCircle
 10
-189.5381
 20
-1823.4507
 30
0.0
 40
2.0
  0
CIRCLE
  5
A12
330
1F
100
AcDbEntity
  8
0
100
AcDbCircle
 10
-189.5381
 20
-1818.4519
 30
0.0
 40
2.0
  0
CIRCLE
  5
A13
330
1F
100
AcDbEntity
  8
0
100
AcDbCircle
 10
-189.5381
 20
-1813.4531
 30
0.0
 40
2.0
  0
CIRCLE
  5
A14
330
1F
100
AcDbEntity
  8
0
100
AcDbCircle
 10
-189.5381
 20
-1808.4543
 30
0.0
 40
2.0
  0
CIRCLE
  5
A15
330
1F
100
AcDbEntity
  8
0
100
AcDbCircle
 10
-189.5381
 20
-1803.4555
 30
0.0
 40
2.0
  0
CIRCLE
  5
A16
330
1F
100
AcDbEntity
  8
0
100
AcDbCircle
 10
-189.5381
 20
-1798.4567
 30
0.0
 40
2.0
  0
CIRCLE
  5
A17
330
1F
100
AcDbEntity
  8
0
100
AcDbCircle
 10
-189.5381
 20
-1793.4578
 30
0.0
 40
2.0
  0
CIRCLE
  5
A18
330
1F
100
AcDbEntity
  8
0
100
AcDbCircle
 10
-189.5381
 20
-1788.459
 30
0.0
 40
2.0
  0
CIRCLE
  5
A19
330
1F
100
AcDbEntity
  8
0
100
AcDbCircle
 10
-189.5381
 20
-1783.4602
 30
0.0
 40
2.0
  0
CIRCLE
  5
A1A
330
1F
100
AcDbEntity
  8
0
100
AcDbCircle
 10
-189.5381
 20
-1778.4614
 30
0.0
 40
2.0
  0
CIRCLE
  5
A1B
330
1F
100
AcDbEntity
  8
0
100
AcDbCircle
 10
-189.5381
 20
-1773.4626
 30
0.0
 40
2.0
  0
CIRCLE
  5
A1C
330
1F
100
AcDbEntity
  8
0
100
AcDbCircle
 10
-189.5381
 20
-1768.4638
 30
0.0
 40
2.0
  0
CIRCLE
  5
A1D
330
1F
100
AcDbEntity
  8
0
100
AcDbCircle
 10
-189.5381
 20
-1763.465
 30
0.0
 40
2.0
  0
CIRCLE
  5
A1E
330
1F
100
AcDbEntity
  8
0
100
AcDbCircle
 10
-189.5381
 20
-1758.4662
 30
0.0
 40
2.0
  0
CIRCLE
  5
A1F
330
1F
100
AcDbEntity
  8
0
100
AcDbCircle
 10
-189.5381
 20
-1753.4674
 30
0.0
 40
2.0
  0
CIRCLE
  5
A20
330
1F
100
AcDbEntity
  8
0
100
AcDbCircle
 10
-189.5381
 20
-1748.4686
 30
0.0
 40
2.0
  0
CIRCLE
  5
A21
330
1F
100
AcDbEntity
  8
0
100
AcDbCircle
 10
-189.5381
 20
-1743.4698
 30
0.0
 40
2.0
  0
CIRCLE
  5
A22
330
1F
100
AcDbEntity
  8
0
100
AcDbCircle
 10
-189.5381
 20
-1738.471
 30
0.0
 40
2.0
  0
CIRCLE
  5
A23
330
1F
100
AcDbEntity
  8
0
100
AcDbCircle
 10
-189.5381
 20
-1733.4722
 30
0.0
 40
2.0
  0
CIRCLE
  5
A24
330
1F
100
AcDbEntity
  8
0
100
AcDbCircle
 10
-189.5381
 20
-1728.4734
 30
0.0
 40
2.0
  0
CIRCLE
  5
A25
330
1F
100
AcDbEntity
  8
0
100
AcDbCircle
 10
-189.5381
 20
-1723.4746
 30
0.0
 40
2.0
  0
CIRCLE
  5
A26
330
1F
100
AcDbEntity
  8
0
100
AcDbCircle
 10
-189.5381
 20
-1718.4758
 30
0.0
 40
2.0
  0
CIRCLE
  5
A27
330
1F
100
AcDbEntity
  8
0
100
AcDbCircle
 10
-189.5381
 20
-1713.477
 30
0.0
 40
2.0
  0
CIRCLE
  5
A28
330
1F
100
AcDbEntity
  8
0
100
AcDbCircle
 10
-189.5381
 20
-1708.4782
 30
0.0
 40
2.0
  0
CIRCLE
  5
A29
330
1F
100
AcDbEntity
  8
0
100
AcDbCircle
 10
-189.5381
 20
-1703.4794
 30
0.0
 40
2.0
  0
CIRCLE
  5
A2A
330
1F
100
AcDbEntity
  8
0
100
AcDbCircle
 10
-189.5381
 20
-1698.4805
 30
0.0
 40
2.0
  0
CIRCLE
  5
A2B
330
1F
100
AcDbEntity
  8
0
100
AcDbCircle
 10
-189.5381
 20
-1693.4817
 30
0.0
 40
2.0
  0
CIRCLE
  5
A2C
330
1F
100
AcDbEntity
  8
0
100
AcDbCircle
 10
-189.5381
 20
-1688.4829
 30
0.0
 40
2.0
  0
CIRCLE
  5
A2D
330
1F
100
AcDbEntity
  8
0
100
AcDbCircle
 10
-189.5381
 20
-1683.4841
 30
0.0
 40
2.0
  0
CIRCLE
  5
A2E
330
1F
100
AcDbEntity
  8
0
100
AcDbCircle
 10
-189.5381
 20
-1678.4853
 30
0.0
 40
2.0
  0
CIRCLE
  5
A2F
330
1F
100
AcDbEntity
  8
0
100
AcDbCircle
 10
-189.5381
 20
-1673.4865
 30
0.0
 40
2.0
  0
CIRCLE
  5
A30
330
1F
100
AcDbEntity
  8
0
100
AcDbCircle
 10
-189.5381
 20
-1668.4877
 30
0.0
 40
2.0
  0
CIRCLE
  5
A31
330
1F
100
AcDbEntity
  8
0
100
AcDbCircle
 10
-189.5381
 20
-1663.4889
 30
0.0
 40
2.0
  0
CIRCLE
  5
A32
330
1F
100
AcDbEntity
  8
0
100
AcDbCircle
 10
-189.5381
 20
-1658.4901
 30
0.0
 40
2.0
  0
CIRCLE
  5
A33
330
1F
100
AcDbEntity
  8
0
100
AcDbCircle
 10
-189.5381
 20
-1653.4913
 30
0.0
 40
2.0
  0
CIRCLE
  5
A34
330
1F
100
AcDbEntity
  8
0
100
AcDbCircle
 10
-189.5381
 20
-1648.4925
 30
0.0
 40
2.0
  0
CIRCLE
  5
A35
330
1F
100
AcDbEntity
  8
0
100
AcDbCircle
 10
-189.5381
 20
-1643.4937
 30
0.0
 40
2.0
  0
CIRCLE
  5
A36
330
1F
100
AcDbEntity
  8
0
100
AcDbCircle
 10
-189.5381
 20
-1638.4949
 30
0.0
 40
2.0
  0
CIRCLE
  5
A37
330
1F
100
AcDbEntity
  8
0
100
AcDbCircle
 10
-189.5381
 20
-1633.4961
 30
0.0
 40
2.0
  0
CIRCLE
  5
A38
330
1F
100
AcDbEntity
  8
0
100
AcDbCircle
 10
-189.5381
 20
-1628.4973
 30
0.0
 40
2.0
  0
CIRCLE
  5
A39
330
1F
100
AcDbEntity
  8
0
100
AcDbCircle
 10
-189.5381
 20
-1623.4985
 30
0.0
 40
2.0
  0
CIRCLE
  5
A3A
330
1F
100
AcDbEntity
  8
0
100
AcDbCircle
 10
-189.5381
 20
-1618.4997
 30
0.0
 40
2.0
  0
CIRCLE
  5
A3B
330
1F
100
AcDbEntity
  8
0
100
AcDbCircle
 10
-189.5381
 20
-1613.5009
 30
0.0
 40
2.0
  0
CIRCLE
  5
A3C
330
1F
100
AcDbEntity
  8
0
100
AcDbCircle
 10
-189.5381
 20
-1608.5021
 30
0.0
 40
2.0
  0
CIRCLE
  5
A3D
330
1F
100
AcDbEntity
  8
0
100
AcDbCircle
 10
-189.5381
 20
-1603.5032
 30
0.0
 40
2.0
  0
CIRCLE
  5
A3E
330
1F
100
AcDbEntity
  8
0
100
AcDbCircle
 10
-189.5381
 20
-1598.5044
 30
0.0
 40
2.0
  0
CIRCLE
  5
A3F
330
1F
100
AcDbEntity
  8
0
100
AcDbCircle
 10
-189.5381
 20
-1593.5056
 30
0.0
 40
2.0
  0
CIRCLE
  5
A40
330
1F
100
AcDbEntity
  8
0
100
AcDbCircle
 10
-189.5381
 20
-1588.5068
 30
0.0
 40
2.0
  0
CIRCLE
  5
A41
330
1F
100
AcDbEntity
  8
0
100
AcDbCircle
 10
-189.5381
 20
-1583.508
 30
0.0
 40
2.0
  0
CIRCLE
  5
A42
330
1F
100
AcDbEntity
  8
0
100
AcDbCircle
 10
-189.5381
 20
-1578.5092
 30
0.0
 40
2.0
  0
CIRCLE
  5
A43
330
1F
100
AcDbEntity
  8
0
100
AcDbCircle
 10
-189.5381
 20
-1573.5104
 30
0.0
 40
2.0
  0
CIRCLE
  5
A44
330
1F
100
AcDbEntity
  8
0
100
AcDbCircle
 10
-189.5381
 20
-1568.5116
 30
0.0
 40
2.0
  0
CIRCLE
  5
A45
330
1F
100
AcDbEntity
  8
0
100
AcDbCircle
 10
-189.5381
 20
-1563.5128
 30
0.0
 40
2.0
  0
CIRCLE
  5
A46
330
1F
100
AcDbEntity
  8
0
100
AcDbCircle
 10
-189.5381
 20
-1558.514
 30
0.0
 40
2.0
  0
CIRCLE
  5
A47
330
1F
100
AcDbEntity
  8
0
100
AcDbCircle
 10
-189.5381
 20
-1553.5152
 30
0.0
 40
2.0
  0
CIRCLE
  5
A48
330
1F
100
AcDbEntity
  8
0
100
AcDbCircle
 10
-189.5381
 20
-1548.5164
 30
0.0
 40
2.0
  0
CIRCLE
  5
A49
330
1F
100
AcDbEntity
  8
0
100
AcDbCircle
 10
-189.5381
 20
-1543.5176
 30
0.0
 40
2.0
  0
CIRCLE
  5
A4A
330
1F
100
AcDbEntity
  8
0
100
AcDbCircle
 10
-189.5381
 20
-1538.5188
 30
0.0
 40
2.0
  0
CIRCLE
  5
A4B
330
1F
100
AcDbEntity
  8
0
100
AcDbCircle
 10
-189.5381
 20
-1533.52
 30
0.0
 40
2.0
  0
CIRCLE
  5
A4C
330
1F
100
AcDbEntity
  8
0
100
AcDbCircle
 10
-189.5381
 20
-1528.5212
 30
0.0
 40
2.0
  0
CIRCLE
  5
A4D
330
1F
100
AcDbEntity
  8
0
100
AcDbCircle
 10
-189.5381
 20
-1523.5224
 30
0.0
 40
2.0
  0
CIRCLE
  5
A4E
330
1F
100
AcDbEntity
  8
0
100
AcDbCircle
 10
-189.5381
 20
-1518.5236
 30
0.0
 40
2.0
  0
CIRCLE
  5
A4F
330
1F
100
AcDbEntity
  8
0
100
AcDbCircle
 10
-189.5381
 20
-1513.5248
 30
0.0
 40
2.0
  0
CIRCLE
  5
A50
330
1F
100
AcDbEntity
  8
0
100
AcDbCircle
 10
-189.5381
 20
-1508.5259
 30
0.0
 40
2.0
  0
CIRCLE
  5
A51
330
1F
100
AcDbEntity
  8
0
100
AcDbCircle
 10
-189.5381
 20
-1503.5271
 30
0.0
 40
2.0
  0
CIRCLE
  5
A52
330
1F
100
AcDbEntity
  8
0
100
AcDbCircle
 10
-189.5381
 20
-1498.5283
 30
0.0
 40
2.0
  0
CIRCLE
  5
A53
330
1F
100
AcDbEntity
  8
0
100
AcDbCircle
 10
-189.5381
 20
-1493.5295
 30
0.0
 40
2.0
  0
CIRCLE
  5
A54
330
1F
100
AcDbEntity
  8
0
100
AcDbCircle
 10
-189.5381
 20
-1488.5307
 30
0.0
 40
2.0
  0
CIRCLE
  5
A55
330
1F
100
AcDbEntity
  8
0
100
AcDbCircle
 10
-189.5381
 20
-1483.5319
 30
0.0
 40
2.0
  0
CIRCLE
  5
A56
330
1F
100
AcDbEntity
  8
0
100
AcDbCircle
 10
-189.5381
 20
-1478.5331
 30
0.0
 40
2.0
  0
CIRCLE
  5
A57
330
1F
100
AcDbEntity
  8
0
100
AcDbCircle
 10
-189.5381
 20
-1473.5343
 30
0.0
 40
2.0
  0
CIRCLE
  5
A58
330
1F
100
AcDbEntity
  8
0
100
AcDbCircle
 10
-189.5381
 20
-1468.5355
 30
0.0
 40
2.0
  0
CIRCLE
  5
A59
330
1F
100
AcDbEntity
  8
0
100
AcDbCircle
 10
-189.5381
 20
-1463.5367
 30
0.0
 40
2.0
  0
CIRCLE
  5
A5A
330
1F
100
AcDbEntity
  8
0
100
AcDbCircle
 10
-189.5381
 20
-1458.5379
 30
0.0
 40
2.0
  0
CIRCLE
  5
A5B
330
1F
100
AcDbEntity
  8
0
100
AcDbCircle
 10
-189.5381
 20
-1453.5391
 30
0.0
 40
2.0
  0
CIRCLE
  5
A5C
330
1F
100
AcDbEntity
  8
0
100
AcDbCircle
 10
-189.5381
 20
-1448.5403
 30
0.0
 40
2.0
  0
CIRCLE
  5
A5D
330
1F
100
AcDbEntity
  8
0
100
AcDbCircle
 10
-189.5381
 20
-1443.5415
 30
0.0
 40
2.0
  0
CIRCLE
  5
A5E
330
1F
100
AcDbEntity
  8
0
100
AcDbCircle
 10
-189.5381
 20
-1438.5427
 30
0.0
 40
2.0
  0
CIRCLE
  5
A5F
330
1F
100
AcDbEntity
  8
0
100
AcDbCircle
 10
-189.5381
 20
-1433.5439
 30
0.0
 40
2.0
  0
CIRCLE
  5
A60
330
1F
100
AcDbEntity
  8
0
100
AcDbCircle
 10
-189.5381
 20
-1428.5451
 30
0.0
 40
2.0
  0
CIRCLE
  5
A61
330
1F
100
AcDbEntity
  8
0
100
AcDbCircle
 10
-189.5381
 20
-1423.5463
 30
0.0
 40
2.0
  0
CIRCLE
  5
A62
330
1F
100
AcDbEntity
  8
0
100
AcDbCircle
 10
-189.5381
 20
-1418.5475
 30
0.0
 40
2.0
  0
CIRCLE
  5
A63
330
1F
100
AcDbEntity
  8
0
100
AcDbCircle
 10
-189.5381
 20
-1413.5486
 30
0.0
 40
2.0
  0
CIRCLE
  5
A64
330
1F
100
AcDbEntity
  8
0
100
AcDbCircle
 10
-189.5381
 20
-1408.5498
 30
0.0
 40
2.0
  0
CIRCLE
  5
A65
330
1F
100
AcDbEntity
  8
0
100
AcDbCircle
 10
-189.5381
 20
-1403.551
 30
0.0
 40
2.0
  0
CIRCLE
  5
A66
330
1F
100
AcDbEntity
  8
0
100
AcDbCircle
 10
-189.5381
 20
-1398.5522
 30
0.0
 40
2.0
  0
CIRCLE
  5
A67
330
1F
100
AcDbEntity
  8
0
100
AcDbCircle
 10
-189.5381
 20
-1393.5534
 30
0.0
 40
2.0
  0
CIRCLE
  5
A68
330
1F
100
AcDbEntity
  8
0
100
AcDbCircle
 10
-189.5381
 20
-1388.5546
 30
0.0
 40
2.0
  0
CIRCLE
  5
A69
330
1F
100
AcDbEntity
  8
0
100
AcDbCircle
 10
-189.5381
 20
-1383.5558
 30
0.0
 40
2.0
  0
CIRCLE
  5
A6A
330
1F
100
AcDbEntity
  8
0
100
AcDbCircle
 10
-189.5381
 20
-1378.557
 30
0.0
 40
2.0
  0
CIRCLE
  5
A6B
330
1F
100
AcDbEntity
  8
0
100
AcDbCircle
 10
-189.5381
 20
-1373.5582
 30
0.0
 40
2.0
  0
CIRCLE
  5
A6C
330
1F
100
AcDbEntity
  8
0
100
AcDbCircle
 10
-189.5381
 20
-1368.5594
 30
0.0
 40
2.0
  0
CIRCLE
  5
A6D
330
1F
100
AcDbEntity
  8
0
100
AcDbCircle
 10
-189.5381
 20
-1363.5606
 30
0.0
 40
2.0
  0
CIRCLE
  5
A6E
330
1F
100
AcDbEntity
  8
0
100
AcDbCircle
 10
-189.5381
 20
-1358.5618
 30
0.0
 40
2.0
  0
CIRCLE
  5
A6F
330
1F
100
AcDbEntity
  8
0
100
AcDbCircle
 10
-189.5381
 20
-1353.563
 30
0.0
 40
2.0
  0
CIRCLE
  5
A70
330
1F
100
AcDbEntity
  8
0
100
AcDbCircle
 10
-189.5381
 20
-1348.5642
 30
0.0
 40
2.0
  0
CIRCLE
  5
A71
330
1F
100
AcDbEntity
  8
0
100
AcDbCircle
 10
-189.5381
 20
-1343.5654
 30
0.0
 40
2.0
  0
CIRCLE
  5
A72
330
1F
100
AcDbEntity
  8
0
100
AcDbCircle
 10
-189.5381
 20
-1338.5666
 30
0.0
 40
2.0
  0
CIRCLE
  5
A73
330
1F
100
AcDbEntity
  8
0
100
AcDbCircle
 10
-189.5381
 20
-1333.5678
 30
0.0
 40
2.0
  0
CIRCLE
  5
A74
330
1F
100
AcDbEntity
  8
0
100
AcDbCircle
 10
-189.5381
 20
-1328.569
 30
0.0
 40
2.0
  0
CIRCLE
  5
A75
330
1F
100
AcDbEntity
  8
0
100
AcDbCircle
 10
-189.5381
 20
-1323.5702
 30
0.0
 40
2.0
  0
CIRCLE
  5
A76
330
1F
100
AcDbEntity
  8
0
100
AcDbCircle
 10
-189.5381
 20
-1318.5713
 30
0.0
 40
2.0
  0
CIRCLE
  5
A77
330
1F
100
AcDbEntity
  8
0
100
AcDbCircle
 10
-189.5381
 20
-1313.5725
 30
0.0
 40
2.0
  0
CIRCLE
  5
A78
330
1F
100
AcDbEntity
  8
0
100
AcDbCircle
 10
-189.5381
 20
-1308.5737
 30
0.0
 40
2.0
  0
CIRCLE
  5
A79
330
1F
100
AcDbEntity
  8
0
100
AcDbCircle
 10
-189.5381
 20
-1303.5749
 30
0.0
 40
2.0
  0
CIRCLE
  5
A7A
330
1F
100
AcDbEntity
  8
0
100
AcDbCircle
 10
-189.5381
 20
-1298.5761
 30
0.0
 40
2.0
  0
CIRCLE
  5
A7B
330
1F
100
AcDbEntity
  8
0
100
AcDbCircle
 10
-189.5381
 20
-1293.5773
 30
0.0
 40
2.0
  0
CIRCLE
  5
A7C
330
1F
100
AcDbEntity
  8
0
100
AcDbCircle
 10
-189.5381
 20
-1288.5785
 30
0.0
 40
2.0
  0
CIRCLE
  5
A7D
330
1F
100
AcDbEntity
  8
0
100
AcDbCircle
 10
-189.5381
 20
-1283.5797
 30
0.0
 40
2.0
  0
CIRCLE
  5
A7E
330
1F
100
AcDbEntity
  8
0
100
AcDbCircle
 10
-189.5381
 20
-1278.5809
 30
0.0
 40
2.0
  0
CIRCLE
  5
A7F
330
1F
100
AcDbEntity
  8
0
100
AcDbCircle
 10
-189.5381
 20
-1273.5821
 30
0.0
 40
2.0
  0
CIRCLE
  5
A80
330
1F
100
AcDbEntity
  8
0
100
AcDbCircle
 10
-189.5381
 20
-1268.5833
 30
0.0
 40
2.0
  0
CIRCLE
  5
A81
330
1F
100
AcDbEntity
  8
0
100
AcDbCircle
 10
-189.5381
 20
-1263.5845
 30
0.0
 40
2.0
  0
CIRCLE
  5
A82
330
1F
100
AcDbEntity
  8
0
100
AcDbCircle
 10
-189.5381
 20
-1258.5857
 30
0.0
 40
2.0
  0
CIRCLE
  5
A83
330
1F
100
AcDbEntity
  8
0
100
AcDbCircle
 10
-189.5381
 20
-1253.5869
 30
0.0
 40
2.0
  0
CIRCLE
  5
A84
330
1F
100
AcDbEntity
  8
0
100
AcDbCircle
 10
-189.5381
 20
-1248.5881
 30
0.0
 40
2.0
  0
CIRCLE
  5
A85
330
1F
100
AcDbEntity
  8
0
100
AcDbCircle
 10
-189.5381
 20
-1243.5893
 30
0.0
 40
2.0
  0
CIRCLE
  5
A86
330
1F
100
AcDbEntity
  8
0
100
AcDbCircle
 10
-189.5381
 20
-1238.5905
 30
0.0
 40
2.0
  0
CIRCLE
  5
A87
330
1F
100
AcDbEntity
  8
0
100
AcDbCircle
 10
-189.5381
 20
-1233.5917
 30
0.0
 40
2.0
  0
CIRCLE
  5
A88
330
1F
100
AcDbEntity
  8
0
100
AcDbCircle
 10
-189.5381
 20
-1228.5929
 30
0.0
 40
2.0
  0
CIRCLE
  5
A89
330
1F
100
AcDbEntity
  8
0
100
AcDbCircle
 10
-189.5381
 20
-1223.594
 30
0.0
 40
2.0
  0
CIRCLE
  5
A8A
330
1F
100
AcDbEntity
  8
0
100
AcDbCircle
 10
-189.5381
 20
-1218.5952
 30
0.0
 40
2.0
  0
CIRCLE
  5
A8B
330
1F
100
AcDbEntity
  8
0
100
AcDbCircle
 10
-189.5381
 20
-1213.5964
 30
0.0
 40
2.0
  0
CIRCLE
  5
A8C
330
1F
100
AcDbEntity
  8
0
100
AcDbCircle
 10
-189.5381
 20
-1208.5976
 30
0.0
 40
2.0
  0
CIRCLE
  5
A8D
330
1F
100
AcDbEntity
  8
0
100
AcDbCircle
 10
-189.5381
 20
-1203.5988
 30
0.0
 40
2.0
  0
CIRCLE
  5
A8E
330
1F
100
AcDbEntity
  8
0
100
AcDbCircle
 10
-189.5381
 20
-1198.6
 30
0.0
 40
2.0
  0
CIRCLE
  5
A8F
330
1F
100
AcDbEntity
  8
0
100
AcDbCircle
 10
-189.5381
 20
-1193.6012
 30
0.0
 40
2.0
  0
CIRCLE
  5
A90
330
1F
100
AcDbEntity
  8
0
100
AcDbCircle
 10
-189.5381
 20
-1188.6024
 30
0.0
 40
2.0
  0
CIRCLE
  5
A91
330
1F
100
AcDbEntity
  8
0
100
AcDbCircle
 10
-189.5381
 20
-1183.6036
 30
0.0
 40
2.0
  0
CIRCLE
  5
A92
330
1F
100
AcDbEntity
  8
0
100
AcDbCircle
 10
-189.5381
 20
-1178.6048
 30
0.0
 40
2.0
  0
CIRCLE
  5
A93
330
1F
100
AcDbEntity
  8
0
100
AcDbCircle
 10
-189.5381
 20
-1173.606
 30
0.0
 40
2.0
  0
CIRCLE
  5
A94
330
1F
100
AcDbEntity
  8
0
100
AcDbCircle
 10
-189.5381
 20
-1168.6072
 30
0.0
 40
2.0
  0
CIRCLE
  5
A95
330
1F
100
AcDbEntity
  8
0
100
AcDbCircle
 10
-189.5381
 20
-1163.6084
 30
0.0
 40
2.0
  0
CIRCLE
  5
A96
330
1F
100
AcDbEntity
  8
0
100
AcDbCircle
 10
-189.5381
 20
-1158.6096
 30
0.0
 40
2.0
  0
CIRCLE
  5
A97
330
1F
100
AcDbEntity
  8
0
100
AcDbCircle
 10
-189.5381
 20
-1153.6108
 30
0.0
 40
2.0
  0
CIRCLE
  5
A98
330
1F
100
AcDbEntity
  8
0
100
AcDbCircle
 10
-189.5381
 20
-1148.612
 30
0.0
 40
2.0
  0
CIRCLE
  5
A99
330
1F
100
AcDbEntity
  8
0
100
AcDbCircle
 10
-189.5381
 20
-1143.6132
 30
0.0
 40
2.0
  0
CIRCLE
  5
A9A
330
1F
100
AcDbEntity
  8
0
100
AcDbCircle
 10
-189.5381
 20
-1138.6144
 30
0.0
 40
2.0
  0
CIRCLE
  5
A9B
330
1F
100
AcDbEntity
  8
0
100
AcDbCircle
 10
-189.5381
 20
-1133.6156
 30
0.0
 40
2.0
  0
CIRCLE
  5
A9C
330
1F
100
AcDbEntity
  8
0
100
AcDbCircle
 10
-189.5381
 20
-1128.6167
 30
0.0
 40
2.0
  0
CIRCLE
  5
A9D
330
1F
100
AcDbEntity
  8
0
100
AcDbCircle
 10
-189.5381
 20
-1123.6179
 30
0.0
 40
2.0
  0
CIRCLE
  5
A9E
330
1F
100
AcDbEntity
  8
0
100
AcDbCircle
 10
-189.5381
 20
-1118.6191
 30
0.0
 40
2.0
  0
CIRCLE
  5
A9F
330
1F
100
AcDbEntity
  8
0
100
AcDbCircle
 10
-189.5381
 20
-1113.6203
 30
0.0
 40
2.0
  0
CIRCLE
  5
AA0
330
1F
100
AcDbEntity
  8
0
100
AcDbCircle
 10
-189.5381
 20
-1108.6215
 30
0.0
 40
2.0
  0
CIRCLE
  5
AA1
330
1F
100
AcDbEntity
  8
0
100
AcDbCircle
 10
-189.5381
 20
-1103.6227
 30
0.0
 40
2.0
  0
CIRCLE
  5
AA2
330
1F
100
AcDbEntity
  8
0
100
AcDbCircle
 10
-189.5381
 20
-1098.6239
 30
0.0
 40
2.0
  0
CIRCLE
  5
AA3
330
1F
100
AcDbEntity
  8
0
100
AcDbCircle
 10
-189.5381
 20
-1093.6251
 30
0.0
 40
2.0
  0
CIRCLE
  5
AA4
330
1F
100
AcDbEntity
  8
0
100
AcDbCircle
 10
-189.5381
 20
-1088.6263
 30
0.0
 40
2.0
  0
CIRCLE
  5
AA5
330
1F
100
AcDbEntity
  8
0
100
AcDbCircle
 10
-189.5381
 20
-1083.6275
 30
0.0
 40
2.0
  0
CIRCLE
  5
AA6
330
1F
100
AcDbEntity
  8
0
100
AcDbCircle
 10
-189.5381
 20
-1078.6287
 30
0.0
 40
2.0
  0
CIRCLE
  5
AA7
330
1F
100
AcDbEntity
  8
0
100
AcDbCircle
 10
-189.5381
 20
-1073.6299
 30
0.0
 40
2.0
  0
CIRCLE
  5
AA8
330
1F
100
AcDbEntity
  8
0
100
AcDbCircle
 10
-189.5381
 20
-1068.6311
 30
0.0
 40
2.0
  0
CIRCLE
  5
AA9
330
1F
100
AcDbEntity
  8
0
100
AcDbCircle
 10
-189.5381
 20
-1063.6323
 30
0.0
 40
2.0
  0
CIRCLE
  5
AAA
330
1F
100
AcDbEntity
  8
0
100
AcDbCircle
 10
-189.5381
 20
-1058.6335
 30
0.0
 40
2.0
  0
CIRCLE
  5
AAB
330
1F
100
AcDbEntity
  8
0
100
AcDbCircle
 10
-189.5381
 20
-1053.6347
 30
0.0
 40
2.0
  0
CIRCLE
  5
AAC
330
1F
100
AcDbEntity
  8
0
100
AcDbCircle
 10
-189.5381
 20
-1048.6359
 30
0.0
 40
2.0
  0
CIRCLE
  5
AAD
330
1F
100
AcDbEntity
  8
0
100
AcDbCircle
 10
-189.5381
 20
-1043.6371
 30
0.0
 40
2.0
  0
CIRCLE
  5
AAE
330
1F
100
AcDbEntity
  8
0
100
AcDbCircle
 10
-189.5381
 20
-1038.6383
 30
0.0
 40
2.0
  0
CIRCLE
  5
AAF
330
1F
100
AcDbEntity
  8
0
100
AcDbCircle
 10
-189.5381
 20
-1033.6394
 30
0.0
 40
2.0
  0
CIRCLE
  5
AB0
330
1F
100
AcDbEntity
  8
0
100
AcDbCircle
 10
-189.5381
 20
-1028.6406
 30
0.0
 40
2.0
  0
CIRCLE
  5
AB1
330
1F
100
AcDbEntity
  8
0
100
AcDbCircle
 10
-189.5381
 20
-1023.6418
 30
0.0
 40
2.000000000000027
  0
CIRCLE
  5
AB2
330
1F
100
AcDbEntity
  8
0
100
AcDbCircle
 10
-189.5381
 20
-1018.643
 30
0.0
 40
2.0
  0
CIRCLE
  5
AB3
330
1F
100
AcDbEntity
  8
0
100
AcDbCircle
 10
-189.5381
 20
-1013.6442
 30
0.0
 40
2.0
  0
CIRCLE
  5
AB4
330
1F
100
AcDbEntity
  8
0
100
AcDbCircle
 10
-189.5381
 20
-1008.6454
 30
0.0
 40
2.0
  0
CIRCLE
  5
AB5
330
1F
100
AcDbEntity
  8
0
100
AcDbCircle
 10
-189.5381
 20
-1003.6466
 30
0.0
 40
2.0
  0
CIRCLE
  5
AB6
330
1F
100
AcDbEntity
  8
0
100
AcDbCircle
 10
-189.5381
 20
-998.6477999999999
 30
0.0
 40
2.0
  0
CIRCLE
  5
AB7
330
1F
100
AcDbEntity
  8
0
100
AcDbCircle
 10
-189.5381
 20
-993.649
 30
0.0
 40
1.999999999999914
  0
CIRCLE
  5
AB8
330
1F
100
AcDbEntity
  8
0
100
AcDbCircle
 10
-189.5381
 20
-988.6502
 30
0.0
 40
2.0
  0
CIRCLE
  5
AB9
330
1F
100
AcDbEntity
  8
0
100
AcDbCircle
 10
-189.5381
 20
-983.6513999999999
 30
0.0
 40
2.0
  0
CIRCLE
  5
ABA
330
1F
100
AcDbEntity
  8
0
100
AcDbCircle
 10
-189.5381
 20
-978.6526
 30
0.0
 40
2.0
  0
CIRCLE
  5
ABB
330
1F
100
AcDbEntity
  8
0
100
AcDbCircle
 10
-189.5381
 20
-973.6538000000001
 30
0.0
 40
2.0
  0
CIRCLE
  5
ABC
330
1F
100
AcDbEntity
  8
0
100
AcDbCircle
 10
-189.5381
 20
-968.655
 30
0.0
 40
2.0
  0
CIRCLE
  5
ABD
330
1F
100
AcDbEntity
  8
0
100
AcDbCircle
 10
-189.5381
 20
-963.6561999999999
 30
0.0
 40
2.0
  0
CIRCLE
  5
ABE
330
1F
100
AcDbEntity
  8
0
100
AcDbCircle
 10
-189.5381
 20
-958.6574
 30
0.0
 40
2.0
  0
CIRCLE
  5
ABF
330
1F
100
AcDbEntity
  8
0
100
AcDbCircle
 10
-189.5381
 20
-953.6585999999999
 30
0.0
 40
2.0
  0
CIRCLE
  5
AC0
330
1F
100
AcDbEntity
  8
0
100
AcDbCircle
 10
-189.5381
 20
-948.6598
 30
0.0
 40
2.0
  0
CIRCLE
  5
AC1
330
1F
100
AcDbEntity
  8
0
100
AcDbCircle
 10
-189.5381
 20
-943.6609999999999
 30
0.0
 40
1.999999999999971
  0
CIRCLE
  5
AC2
330
1F
100
AcDbEntity
  8
0
100
AcDbCircle
 10
-189.5381
 20
-938.6620999999999
 30
0.0
 40
2.0
  0
CIRCLE
  5
AC3
330
1F
100
AcDbEntity
  8
0
100
AcDbCircle
 10
-189.5381
 20
-933.6633
 30
0.0
 40
2.0
  0
CIRCLE
  5
AC4
330
1F
100
AcDbEntity
  8
0
100
AcDbCircle
 10
-189.5381
 20
-928.6645
 30
0.0
 40
2.0
  0
CIRCLE
  5
AC5
330
1F
100
AcDbEntity
  8
0
100
AcDbCircle
 10
-189.5381
 20
-923.6657000000001
 30
0.0
 40
2.0
  0
CIRCLE
  5
AC6
330
1F
100
AcDbEntity
  8
0
100
AcDbCircle
 10
-189.5381
 20
-918.6669
 30
0.0
 40
2.0
  0
CIRCLE
  5
AC7
330
1F
100
AcDbEntity
  8
0
100
AcDbCircle
 10
-189.5381
 20
-913.6680999999999
 30
0.0
 40
2.0
  0
CIRCLE
  5
AC8
330
1F
100
AcDbEntity
  8
0
100
AcDbCircle
 10
-189.5381
 20
-908.6693
 30
0.0
 40
2.0
  0
CIRCLE
  5
AC9
330
1F
100
AcDbEntity
  8
0
100
AcDbCircle
 10
-189.5381
 20
-903.6704999999999
 30
0.0
 40
2.0
  0
CIRCLE
  5
ACA
330
1F
100
AcDbEntity
  8
0
100
AcDbCircle
 10
-189.5381
 20
-898.6717
 30
0.0
 40
2.0
  0
CIRCLE
  5
ACB
330
1F
100
AcDbEntity
  8
0
100
AcDbCircle
 10
-189.5381
 20
-893.6728999999997
 30
0.0
 40
2.000000000000027
  0
CIRCLE
  5
ACC
330
1F
100
AcDbEntity
  8
0
100
AcDbCircle
 10
-189.5381
 20
-888.6740999999997
 30
0.0
 40
2.000000000000027
  0
CIRCLE
  5
ACD
330
1F
100
AcDbEntity
  8
0
100
AcDbCircle
 10
-189.5381
 20
-883.6752999999999
 30
0.0
 40
1.999999999999971
  0
CIRCLE
  5
ACE
330
1F
100
AcDbEntity
  8
0
100
AcDbCircle
 10
-189.5381
 20
-878.6765
 30
0.0
 40
1.999999999999971
  0
CIRCLE
  5
ACF
330
1F
100
AcDbEntity
  8
0
100
AcDbCircle
 10
-189.5381
 20
-873.6777
 30
0.0
 40
1.999999999999971
  0
CIRCLE
  5
AD0
330
1F
100
AcDbEntity
  8
0
100
AcDbCircle
 10
-189.5381
 20
-868.6788999999999
 30
0.0
 40
2.000000000000027
  0
CIRCLE
  5
AD1
330
1F
100
AcDbEntity
  8
0
100
AcDbCircle
 10
-189.5381
 20
-863.6801
 30
0.0
 40
1.999999999999943
  0
CIRCLE
  5
AD2
330
1F
100
AcDbEntity
  8
0
100
AcDbCircle
 10
-189.5381
 20
-858.6812999999999
 30
0.0
 40
2.000000000000027
  0
CIRCLE
  5
AD3
330
1F
100
AcDbEntity
  8
0
100
AcDbCircle
 10
-189.5381
 20
-853.6824999999996
 30
0.0
 40
1.999999999999971
  0
CIRCLE
  5
AD4
330
1F
100
AcDbEntity
  8
0
100
AcDbCircle
 10
-189.5381
 20
-848.6836999999997
 30
0.0
 40
2.000000000000055
  0
CIRCLE
  5
AD5
330
1F
100
AcDbEntity
  8
0
100
AcDbCircle
 10
-189.5381
 20
-843.6847999999999
 30
0.0
 40
2.000000000000027
  0
CIRCLE
  5
AD6
330
1F
100
AcDbEntity
  8
0
100
AcDbCircle
 10
-189.5381
 20
-838.6859999999996
 30
0.0
 40
1.999999999999943
  0
CIRCLE
  5
AD7
330
1F
100
AcDbEntity
  8
0
100
AcDbCircle
 10
-189.5381
 20
-833.6871999999997
 30
0.0
 40
1.999999999999971
  0
CIRCLE
  5
AD8
330
1F
100
AcDbEntity
  8
0
100
AcDbCircle
 10
-189.5381
 20
-828.6884
 30
0.0
 40
1.999999999999971
  0
CIRCLE
  5
AD9
330
1F
100
AcDbEntity
  8
0
100
AcDbCircle
 10
-189.5381
 20
-823.6896000000001
 30
0.0
 40
2.000000000000027
  0
CIRCLE
  5
ADA
330
1F
100
AcDbEntity
  8
0
100
AcDbCircle
 10
-189.5381
 20
-818.6907999999997
 30
0.0
 40
2.000000000000027
  0
CIRCLE
  5
ADB
330
1F
100
AcDbEntity
  8
0
100
AcDbCircle
 10
-189.5381
 20
-813.6919999999999
 30
0.0
 40
1.999999999999971
  0
CIRCLE
  5
ADC
330
1F
100
AcDbEntity
  8
0
100
AcDbCircle
 10
-189.5381
 20
-808.6932
 30
0.0
 40
1.999999999999971
  0
CIRCLE
  5
ADD
330
1F
100
AcDbEntity
  8
0
100
AcDbCircle
 10
-189.5381
 20
-803.6943999999998
 30
0.0
 40
1.999999999999971
  0
CIRCLE
  5
ADE
330
1F
100
AcDbEntity
  8
0
100
AcDbCircle
 10
-189.5381
 20
-798.6956
 30
0.0
 40
2.0
  0
CIRCLE
  5
ADF
330
1F
100
AcDbEntity
  8
0
100
AcDbCircle
 10
-189.5381
 20
-793.6968000000002
 30
0.0
 40
2.0
  0
CIRCLE
  5
AE0
330
1F
100
AcDbEntity
  8
0
100
AcDbCircle
 10
-189.5381
 20
-788.6979999999996
 30
0.0
 40
2.0
  0
CIRCLE
  5
AE1
330
1F
100
AcDbEntity
  8
0
100
AcDbCircle
 10
-189.5381
 20
-783.6991999999996
 30
0.0
 40
2.0
  0
CIRCLE
  5
AE2
330
1F
100
AcDbEntity
  8
0
100
AcDbCircle
 10
-189.5381
 20
-778.7003999999998
 30
0.0
 40
2.0
  0
CIRCLE
  5
AE3
330
1F
100
AcDbEntity
  8
0
100
AcDbCircle
 10
-189.5381
 20
-773.7015999999998
 30
0.0
 40
2.0
  0
CIRCLE
  5
AE4
330
1F
100
AcDbEntity
  8
0
100
AcDbCircle
 10
-189.5381
 20
-768.7028
 30
0.0
 40
2.0
  0
CIRCLE
  5
AE5
330
1F
100
AcDbEntity
  8
0
100
AcDbCircle
 10
-189.5381
 20
-763.7039999999997
 30
0.0
 40
2.0
  0
CIRCLE
  5
AE6
330
1F
100
AcDbEntity
  8
0
100
AcDbCircle
 10
-189.5381
 20
-758.7051999999999
 30
0.0
 40
2.0
  0
CIRCLE
  5
AE7
330
1F
100
AcDbEntity
  8
0
100
AcDbCircle
 10
-189.5381
 20
-753.7064
 30
0.0
 40
2.0
  0
CIRCLE
  5
AE8
330
1F
100
AcDbEntity
  8
0
100
AcDbCircle
 10
-189.5381
 20
-748.7074999999999
 30
0.0
 40
2.0
  0
CIRCLE
  5
AE9
330
1F
100
AcDbEntity
  8
0
100
AcDbCircle
 10
-189.5381
 20
-743.7087
 30
0.0
 40
2.0
  0
CIRCLE
  5
AEA
330
1F
100
AcDbEntity
  8
0
100
AcDbCircle
 10
-189.5381
 20
-738.7098999999997
 30
0.0
 40
2.0
  0
CIRCLE
  5
AEB
330
1F
100
AcDbEntity
  8
0
100
AcDbCircle
 10
-189.5381
 20
-733.7110999999999
 30
0.0
 40
2.0
  0
CIRCLE
  5
AEC
330
1F
100
AcDbEntity
  8
0
100
AcDbCircle
 10
-189.5381
 20
-728.7123
 30
0.0
 40
2.0
  0
CIRCLE
  5
AED
330
1F
100
AcDbEntity
  8
0
100
AcDbCircle
 10
-189.5381
 20
-723.7134999999997
 30
0.0
 40
2.0
  0
CIRCLE
  5
AEE
330
1F
100
AcDbEntity
  8
0
100
AcDbCircle
 10
-189.5381
 20
-718.7146999999996
 30
0.0
 40
2.0
  0
CIRCLE
  5
AEF
330
1F
100
AcDbEntity
  8
0
100
AcDbCircle
 10
-189.5381
 20
-713.7159
 30
0.0
 40
2.0
  0
CIRCLE
  5
AF0
330
1F
100
AcDbEntity
  8
0
100
AcDbCircle
 10
-189.5381
 20
-708.7170999999998
 30
0.0
 40
2.0
  0
CIRCLE
  5
AF1
330
1F
100
AcDbEntity
  8
0
100
AcDbCircle
 10
-189.5381
 20
-703.7182999999998
 30
0.0
 40
2.0
  0
CIRCLE
  5
AF2
330
1F
100
AcDbEntity
  8
0
100
AcDbCircle
 10
-189.5381
 20
-698.7195
 30
0.0
 40
2.0
  0
CIRCLE
  5
AF3
330
1F
100
AcDbEntity
  8
0
100
AcDbCircle
 10
-189.5381
 20
-693.7206999999999
 30
0.0
 40
2.0
  0
CIRCLE
  5
AF4
330
1F
100
AcDbEntity
  8
0
100
AcDbCircle
 10
-189.5381
 20
-688.7218999999999
 30
0.0
 40
2.0
  0
CIRCLE
  5
AF5
330
1F
100
AcDbEntity
  8
0
100
AcDbCircle
 10
-189.5381
 20
-683.7231
 30
0.0
 40
2.0
  0
CIRCLE
  5
AF6
330
1F
100
AcDbEntity
  8
0
100
AcDbCircle
 10
-189.5381
 20
-678.7242999999997
 30
0.0
 40
2.0
  0
CIRCLE
  5
AF7
330
1F
100
AcDbEntity
  8
0
100
AcDbCircle
 10
-189.5381
 20
-673.7255
 30
0.0
 40
2.0
  0
CIRCLE
  5
AF8
330
1F
100
AcDbEntity
  8
0
100
AcDbCircle
 10
-189.5381
 20
-668.7267
 30
0.0
 40
2.0
  0
CIRCLE
  5
AF9
330
1F
100
AcDbEntity
  8
0
100
AcDbCircle
 10
-189.5381
 20
-663.7278999999997
 30
0.0
 40
2.0
  0
CIRCLE
  5
AFA
330
1F
100
AcDbEntity
  8
0
100
AcDbCircle
 10
-189.5381
 20
-658.7291
 30
0.0
 40
2.000000000000027
  0
CIRCLE
  5
AFB
330
1F
100
AcDbEntity
  8
0
100
AcDbCircle
 10
-189.5381
 20
-653.7301999999997
 30
0.0
 40
2.0
  0
CIRCLE
  5
AFC
330
1F
100
AcDbEntity
  8
0
100
AcDbCircle
 10
-189.5381
 20
-648.7314
 30
0.0
 40
2.0
  0
CIRCLE
  5
AFD
330
1F
100
AcDbEntity
  8
0
100
AcDbCircle
 10
-189.5381
 20
-643.7326
 30
0.0
 40
2.000000000000027
  0
CIRCLE
  5
AFE
330
1F
100
AcDbEntity
  8
0
100
AcDbCircle
 10
-189.5381
 20
-638.7337999999998
 30
0.0
 40
2.0
  0
CIRCLE
  5
AFF
330
1F
100
AcDbEntity
  8
0
100
AcDbCircle
 10
-189.5381
 20
-633.735
 30
0.0
 40
2.0
  0
CIRCLE
  5
B00
330
1F
100
AcDbEntity
  8
0
100
AcDbCircle
 10
-189.5381
 20
-628.7362
 30
0.0
 40
2.0
  0
CIRCLE
  5
B01
330
1F
100
AcDbEntity
  8
0
100
AcDbCircle
 10
-189.5381
 20
-623.7373999999999
 30
0.0
 40
2.0
  0
CIRCLE
  5
B02
330
1F
100
AcDbEntity
  8
0
100
AcDbCircle
 10
-189.5381
 20
-618.7386
 30
0.0
 40
2.0
  0
CIRCLE
  5
B03
330
1F
100
AcDbEntity
  8
0
100
AcDbCircle
 10
-189.5381
 20
-613.7397999999997
 30
0.0
 40
2.0
  0
CIRCLE
  5
B04
330
1F
100
AcDbEntity
  8
0
100
AcDbCircle
 10
-189.5381
 20
-608.7409999999997
 30
0.0
 40
2.0
  0
CIRCLE
  5
B05
330
1F
100
AcDbEntity
  8
0
100
AcDbCircle
 10
-189.5381
 20
-603.7422
 30
0.0
 40
2.0
  0
CIRCLE
  5
B06
330
1F
100
AcDbEntity
  8
0
100
AcDbCircle
 10
-189.5381
 20
-598.7433999999997
 30
0.0
 40
2.0
  0
CIRCLE
  5
B07
330
1F
100
AcDbEntity
  8
0
100
AcDbCircle
 10
-189.5381
 20
-593.7446
 30
0.0
 40
2.000000000000027
  0
CIRCLE
  5
B08
330
1F
100
AcDbEntity
  8
0
100
AcDbCircle
 10
-189.5381
 20
-588.7458
 30
0.0
 40
2.0
  0
CIRCLE
  5
B09
330
1F
100
AcDbEntity
  8
0
100
AcDbCircle
 10
-189.5381
 20
-583.7469999999997
 30
0.0
 40
2.0
  0
CIRCLE
  5
B0A
330
1F
100
AcDbEntity
  8
0
100
AcDbCircle
 10
-189.5381
 20
-578.7481999999998
 30
0.0
 40
2.0
  0
CIRCLE
  5
B0B
330
1F
100
AcDbEntity
  8
0
100
AcDbCircle
 10
-189.5381
 20
-573.7494
 30
0.0
 40
2.0
  0
CIRCLE
  5
B0C
330
1F
100
AcDbEntity
  8
0
100
AcDbCircle
 10
-189.5381
 20
-568.7505999999997
 30
0.0
 40
2.0
  0
CIRCLE
  5
B0D
330
1F
100
AcDbEntity
  8
0
100
AcDbCircle
 10
-189.5381
 20
-563.7518
 30
0.0
 40
2.0
  0
CIRCLE
  5
B0E
330
1F
100
AcDbEntity
  8
0
100
AcDbCircle
 10
-189.5381
 20
-558.7528999999998
 30
0.0
 40
2.0
  0
CIRCLE
  5
B0F
330
1F
100
AcDbEntity
  8
0
100
AcDbCircle
 10
-189.5381
 20
-553.7540999999999
 30
0.0
 40
1.999999999999971
  0
CIRCLE
  5
B10
330
1F
100
AcDbEntity
  8
0
100
AcDbCircle
 10
-189.5381
 20
-548.7553
 30
0.0
 40
2.0
  0
CIRCLE
  5
B11
330
1F
100
AcDbEntity
  8
0
100
AcDbCircle
 10
-189.5381
 20
-543.7564999999998
 30
0.0
 40
2.0
  0
CIRCLE
  5
B12
330
1F
100
AcDbEntity
  8
0
100
AcDbCircle
 10
-189.5381
 20
-538.7576999999999
 30
0.0
 40
2.0
  0
CIRCLE
  5
B13
330
1F
100
AcDbEntity
  8
0
100
AcDbCircle
 10
-189.5381
 20
-533.7589
 30
0.0
 40
2.0
  0
CIRCLE
  5
B14
330
1F
100
AcDbEntity
  8
0
100
AcDbCircle
 10
-189.5381
 20
-528.7600999999998
 30
0.0
 40
2.000000000000027
  0
CIRCLE
  5
B15
330
1F
100
AcDbEntity
  8
0
100
AcDbCircle
 10
-189.5381
 20
-523.7613
 30
0.0
 40
2.0
  0
CIRCLE
  5
B16
330
1F
100
AcDbEntity
  8
0
100
AcDbCircle
 10
-189.5381
 20
-518.7625
 30
0.0
 40
2.0
  0
CIRCLE
  5
B17
330
1F
100
AcDbEntity
  8
0
100
AcDbCircle
 10
-189.5381
 20
-513.7636999999998
 30
0.0
 40
2.0
  0
CIRCLE
  5
B18
330
1F
100
AcDbEntity
  8
0
100
AcDbCircle
 10
-189.5381
 20
-508.7648999999998
 30
0.0
 40
2.0
  0
CIRCLE
  5
B19
330
1F
100
AcDbEntity
  8
0
100
AcDbCircle
 10
-189.5381
 20
-503.7660999999998
 30
0.0
 40
2.0
  0
CIRCLE
  5
B1A
330
1F
100
AcDbEntity
  8
0
100
AcDbCircle
 10
-189.5381
 20
-498.7672999999999
 30
0.0
 40
2.0
  0
CIRCLE
  5
B1B
330
1F
100
AcDbEntity
  8
0
100
AcDbCircle
 10
-189.5381
 20
-493.7685
 30
0.0
 40
2.0
  0
CIRCLE
  5
B1C
330
1F
100
AcDbEntity
  8
0
100
AcDbCircle
 10
-189.5381
 20
-488.7696999999998
 30
0.0
 40
2.0
  0
CIRCLE
  5
B1D
330
1F
100
AcDbEntity
  8
0
100
AcDbCircle
 10
-189.5381
 20
-483.7708999999998
 30
0.0
 40
2.0
  0
CIRCLE
  5
B1E
330
1F
100
AcDbEntity
  8
0
100
AcDbCircle
 10
-189.5381
 20
-478.7720999999998
 30
0.0
 40
1.999999999999956
  0
CIRCLE
  5
B1F
330
1F
100
AcDbEntity
  8
0
100
AcDbCircle
 10
-189.5381
 20
-473.7732999999998
 30
0.0
 40
2.0
  0
CIRCLE
  5
B20
330
1F
100
AcDbEntity
  8
0
100
AcDbCircle
 10
-189.5381
 20
-468.7744999999998
 30
0.0
 40
2.0
  0
CIRCLE
  5
B21
330
1F
100
AcDbEntity
  8
0
100
AcDbCircle
 10
-189.5381
 20
-463.7755999999998
 30
0.0
 40
2.000000000000042
  0
CIRCLE
  5
B22
330
1F
100
AcDbEntity
  8
0
100
AcDbCircle
 10
-189.5381
 20
-458.7767999999998
 30
0.0
 40
2.0
  0
CIRCLE
  5
B23
330
1F
100
AcDbEntity
  8
0
100
AcDbCircle
 10
-189.5381
 20
-453.778
 30
0.0
 40
2.0
  0
CIRCLE
  5
B24
330
1F
100
AcDbEntity
  8
0
100
AcDbCircle
 10
-189.5381
 20
-448.7791999999998
 30
0.0
 40
2.0
  0
CIRCLE
  5
B25
330
1F
100
AcDbEntity
  8
0
100
AcDbCircle
 10
-189.5381
 20
-443.7803999999998
 30
0.0
 40
2.0
  0
CIRCLE
  5
B26
330
1F
100
AcDbEntity
  8
0
100
AcDbCircle
 10
-189.5381
 20
-438.7815999999999
 30
0.0
 40
2.0
  0
CIRCLE
  5
B27
330
1F
100
AcDbEntity
  8
0
100
AcDbCircle
 10
-189.5381
 20
-433.7828
 30
0.0
 40
2.0
  0
CIRCLE
  5
B28
330
1F
100
AcDbEntity
  8
0
100
AcDbCircle
 10
-189.5381
 20
-428.7839999999998
 30
0.0
 40
2.0
  0
CIRCLE
  5
B29
330
1F
100
AcDbEntity
  8
0
100
AcDbCircle
 10
-189.5381
 20
-423.7851999999998
 30
0.0
 40
2.0
  0
CIRCLE
  5
B2A
330
1F
100
AcDbEntity
  8
0
100
AcDbCircle
 10
-189.5381
 20
-418.7863999999998
 30
0.0
 40
2.0
  0
CIRCLE
  5
B2B
330
1F
100
AcDbEntity
  8
0
100
AcDbCircle
 10
-189.5381
 20
-413.7875999999998
 30
0.0
 40
2.0
  0
CIRCLE
  5
B2C
330
1F
100
AcDbEntity
  8
0
100
AcDbCircle
 10
-189.5381
 20
-408.7887999999998
 30
0.0
 40
2.0
  0
CIRCLE
  5
B2D
330
1F
100
AcDbEntity
  8
0
100
AcDbCircle
 10
-189.5381
 20
-403.79
 30
0.0
 40
2.0
  0
CIRCLE
  5
B2E
330
1F
100
AcDbEntity
  8
0
100
AcDbCircle
 10
-189.5381
 20
-398.7912
 30
0.0
 40
2.0
  0
CIRCLE
  5
B2F
330
1F
100
AcDbEntity
  8
0
100
AcDbCircle
 10
-189.5381
 20
-393.7924
 30
0.0
 40
2.0
  0
CIRCLE
  5
B30
330
1F
100
AcDbEntity
  8
0
100
AcDbCircle
 10
-189.5381
 20
-388.7936
 30
0.0
 40
2.0
  0
CIRCLE
  5
B31
330
1F
100
AcDbEntity
  8
0
100
AcDbCircle
 10
-189.5381
 20
-383.7948
 30
0.0
 40
2.0
  0
CIRCLE
  5
B32
330
1F
100
AcDbEntity
  8
0
100
AcDbCircle
 10
-189.5381
 20
-378.796
 30
0.0
 40
2.0
  0
CIRCLE
  5
B33
330
1F
100
AcDbEntity
  8
0
100
AcDbCircle
 10
-189.5381
 20
-373.7972
 30
0.0
 40
2.0
  0
CIRCLE
  5
B34
330
1F
100
AcDbEntity
  8
0
100
AcDbCircle
 10
-189.5381
 20
-368.7983
 30
0.0
 40
2.0
  0
CIRCLE
  5
B35
330
1F
100
AcDbEntity
  8
0
100
AcDbCircle
 10
-189.5381
 20
-363.7995
 30
0.0
 40
2.0
  0
CIRCLE
  5
B36
330
1F
100
AcDbEntity
  8
0
100
AcDbCircle
 10
-189.5381
 20
-358.8007
 30
0.0
 40
2.0
  0
CIRCLE
  5
B37
330
1F
100
AcDbEntity
  8
0
100
AcDbCircle
 10
-189.5381
 20
-353.8019
 30
0.0
 40
2.0
  0
CIRCLE
  5
B38
330
1F
100
AcDbEntity
  8
0
100
AcDbCircle
 10
-189.5381
 20
-348.8031
 30
0.0
 40
2.0
  0
CIRCLE
  5
B39
330
1F
100
AcDbEntity
  8
0
100
AcDbCircle
 10
-189.5381
 20
-343.8043
 30
0.0
 40
2.0
  0
CIRCLE
  5
B3A
330
1F
100
AcDbEntity
  8
0
100
AcDbCircle
 10
-189.5381
 20
-338.8055
 30
0.0
 40
2.0
  0
CIRCLE
  5
B3B
330
1F
100
AcDbEntity
  8
0
100
AcDbCircle
 10
-189.5381
 20
-333.8067
 30
0.0
 40
2.0
  0
CIRCLE
  5
B3C
330
1F
100
AcDbEntity
  8
0
100
AcDbCircle
 10
-189.5381
 20
-328.8079
 30
0.0
 40
2.0
  0
CIRCLE
  5
B3D
330
1F
100
AcDbEntity
  8
0
100
AcDbCircle
 10
-189.5381
 20
-323.8091
 30
0.0
 40
2.0
  0
CIRCLE
  5
B3E
330
1F
100
AcDbEntity
  8
0
100
AcDbCircle
 10
-189.5381
 20
-318.8103
 30
0.0
 40
2.0
  0
CIRCLE
  5
B3F
330
1F
100
AcDbEntity
  8
0
100
AcDbCircle
 10
-189.5381
 20
-313.8115
 30
0.0
 40
2.0
  0
CIRCLE
  5
B40
330
1F
100
AcDbEntity
  8
0
100
AcDbCircle
 10
-189.5381
 20
-308.8127
 30
0.0
 40
2.0
  0
CIRCLE
  5
B41
330
1F
100
AcDbEntity
  8
0
100
AcDbCircle
 10
-189.5381
 20
-303.8139
 30
0.0
 40
2.0
  0
CIRCLE
  5
B42
330
1F
100
AcDbEntity
  8
0
100
AcDbCircle
 10
-189.5381
 20
-298.8151
 30
0.0
 40
2.0
  0
CIRCLE
  5
B43
330
1F
100
AcDbEntity
  8
0
100
AcDbCircle
 10
-189.5381
 20
-293.8163
 30
0.0
 40
2.0
  0
CIRCLE
  5
B44
330
1F
100
AcDbEntity
  8
0
100
AcDbCircle
 10
-189.5381
 20
-288.8175
 30
0.0
 40
2.0
  0
CIRCLE
  5
B45
330
1F
100
AcDbEntity
  8
0
100
AcDbCircle
 10
-189.5381
 20
-283.8187
 30
0.0
 40
2.0
  0
CIRCLE
  5
B46
330
1F
100
AcDbEntity
  8
0
100
AcDbCircle
 10
-189.5381
 20
-278.8199
 30
0.0
 40
2.0
  0
CIRCLE
  5
B47
330
1F
100
AcDbEntity
  8
0
100
AcDbCircle
 10
-189.5381
 20
-273.821
 30
0.0
 40
2.0
  0
CIRCLE
  5
B48
330
1F
100
AcDbEntity
  8
0
100
AcDbCircle
 10
-189.5381
 20
-268.8222
 30
0.0
 40
2.0
  0
CIRCLE
  5
B49
330
1F
100
AcDbEntity
  8
0
100
AcDbCircle
 10
-189.5381
 20
-263.8234
 30
0.0
 40
2.0
  0
CIRCLE
  5
B4A
330
1F
100
AcDbEntity
  8
0
100
AcDbCircle
 10
-189.5381
 20
-258.8246
 30
0.0
 40
2.0
  0
CIRCLE
  5
B4B
330
1F
100
AcDbEntity
  8
0
100
AcDbCircle
 10
-189.5381
 20
-253.8258
 30
0.0
 40
2.0
  0
CIRCLE
  5
B4C
330
1F
100
AcDbEntity
  8
0
100
AcDbCircle
 10
-189.5381
 20
-248.827
 30
0.0
 40
2.0
  0
CIRCLE
  5
B4D
330
1F
100
AcDbEntity
  8
0
100
AcDbCircle
 10
-189.5381
 20
-243.8282
 30
0.0
 40
2.0
  0
CIRCLE
  5
B4E
330
1F
100
AcDbEntity
  8
0
100
AcDbCircle
 10
-189.5381
 20
-238.8294
 30
0.0
 40
2.0
  0
CIRCLE
  5
B4F
330
1F
100
AcDbEntity
  8
0
100
AcDbCircle
 10
-189.5381
 20
-233.8306
 30
0.0
 40
2.0
  0
CIRCLE
  5
B50
330
1F
100
AcDbEntity
  8
0
100
AcDbCircle
 10
-189.5381
 20
-228.8318
 30
0.0
 40
2.0
  0
CIRCLE
  5
B51
330
1F
100
AcDbEntity
  8
0
100
AcDbCircle
 10
-189.5381
 20
-223.833
 30
0.0
 40
2.0
  0
CIRCLE
  5
B52
330
1F
100
AcDbEntity
  8
0
100
AcDbCircle
 10
-189.5381
 20
-218.8342
 30
0.0
 40
2.0
  0
CIRCLE
  5
B53
330
1F
100
AcDbEntity
  8
0
100
AcDbCircle
 10
-189.5381
 20
-213.8354
 30
0.0
 40
2.0
  0
CIRCLE
  5
B54
330
1F
100
AcDbEntity
  8
0
100
AcDbCircle
 10
-189.5381
 20
-208.8366
 30
0.0
 40
2.0
  0
CIRCLE
  5
B55
330
1F
100
AcDbEntity
  8
0
100
AcDbCircle
 10
-189.5381
 20
-203.8378
 30
0.0
 40
2.0
  0
CIRCLE
  5
B56
330
1F
100
AcDbEntity
  8
0
100
AcDbCircle
 10
-189.5381
 20
-198.839
 30
0.0
 40
2.0
  0
CIRCLE
  5
B57
330
1F
100
AcDbEntity
  8
0
100
AcDbCircle
 10
-189.5381
 20
-193.8402
 30
0.0
 40
2.0
  0
CIRCLE
  5
B58
330
1F
100
AcDbEntity
  8
0
100
AcDbCircle
 10
-189.5381
 20
-188.8414
 30
0.0
 40
2.0
  0
CIRCLE
  5
B59
330
1F
100
AcDbEntity
  8
0
100
AcDbCircle
 10
-189.5381
 20
-183.8426
 30
0.0
 40
2.0
  0
CIRCLE
  5
B5A
330
1F
100
AcDbEntity
  8
0
100
AcDbCircle
 10
-189.5381
 20
-178.8438
 30
0.0
 40
2.0
  0
CIRCLE
  5
B5B
330
1F
100
AcDbEntity
  8
0
100
AcDbCircle
 10
-189.5381
 20
-173.8449
 30
0.0
 40
2.0
  0
CIRCLE
  5
B5C
330
1F
100
AcDbEntity
  8
0
100
AcDbCircle
 10
-189.5381
 20
-168.8461
 30
0.0
 40
2.0
  0
CIRCLE
  5
B5D
330
1F
100
AcDbEntity
  8
0
100
AcDbCircle
 10
-189.5381
 20
-163.8473
 30
0.0
 40
2.0
  0
CIRCLE
  5
B5E
330
1F
100
AcDbEntity
  8
0
100
AcDbCircle
 10
-189.5381
 20
-158.8485
 30
0.0
 40
2.0
  0
CIRCLE
  5
B5F
330
1F
100
AcDbEntity
  8
0
100
AcDbCircle
 10
-189.5381
 20
-153.8497
 30
0.0
 40
2.0
  0
CIRCLE
  5
B60
330
1F
100
AcDbEntity
  8
0
100
AcDbCircle
 10
-189.5381
 20
-148.8509
 30
0.0
 40
2.0
  0
CIRCLE
  5
B61
330
1F
100
AcDbEntity
  8
0
100
AcDbCircle
 10
-189.5381
 20
-143.8521
 30
0.0
 40
2.0
  0
CIRCLE
  5
B62
330
1F
100
AcDbEntity
  8
0
100
AcDbCircle
 10
-189.5381
 20
-138.8533
 30
0.0
 40
2.0
  0
CIRCLE
  5
B63
330
1F
100
AcDbEntity
  8
0
100
AcDbCircle
 10
-189.5381
 20
-133.8545
 30
0.0
 40
2.0
  0
CIRCLE
  5
B64
330
1F
100
AcDbEntity
  8
0
100
AcDbCircle
 10
-189.5381
 20
-128.8557
 30
0.0
 40
2.000000000000003
  0
CIRCLE
  5
B65
330
1F
100
AcDbEntity
  8
0
100
AcDbCircle
 10
-189.5381
 20
-123.8569
 30
0.0
 40
2.0
  0
CIRCLE
  5
B66
330
1F
100
AcDbEntity
  8
0
100
AcDbCircle
 10
-189.5381
 20
-118.8581
 30
0.0
 40
2.0
  0
CIRCLE
  5
B67
330
1F
100
AcDbEntity
  8
0
100
AcDbCircle
 10
-189.5381
 20
-113.8593
 30
0.0
 40
2.0
  0
CIRCLE
  5
B68
330
1F
100
AcDbEntity
  8
0
100
AcDbCircle
 10
-189.5381
 20
-108.8605
 30
0.0
 40
2.0
  0
CIRCLE
  5
B69
330
1F
100
AcDbEntity
  8
0
100
AcDbCircle
 10
-189.5381
 20
-103.8617
 30
0.0
 40
2.0
  0
CIRCLE
  5
B6A
330
1F
100
AcDbEntity
  8
0
100
AcDbCircle
 10
-189.5381
 20
-98.8629
 30
0.0
 40
2.0
  0
CIRCLE
  5
B6B
330
1F
100
AcDbEntity
  8
0
100
AcDbCircle
 10
-189.5381
 20
-93.86409999999996
 30
0.0
 40
1.999999999999995
  0
CIRCLE
  5
B6C
330
1F
100
AcDbEntity
  8
0
100
AcDbCircle
 10
-189.5381
 20
-88.86530000000002
 30
0.0
 40
1.999999999999995
  0
CIRCLE
  5
B6D
330
1F
100
AcDbEntity
  8
0
100
AcDbCircle
 10
-189.5381
 20
-83.86650000000001
 30
0.0
 40
2.0
  0
CIRCLE
  5
B6E
330
1F
100
AcDbEntity
  8
0
100
AcDbCircle
 10
-189.5381
 20
-78.86759999999998
 30
0.0
 40
2.0
  0
CIRCLE
  5
B6F
330
1F
100
AcDbEntity
  8
0
100
AcDbCircle
 10
-189.5381
 20
-73.86879999999997
 30
0.0
 40
2.0
  0
CIRCLE
  5
B70
330
1F
100
AcDbEntity
  8
0
100
AcDbCircle
 10
-189.5381
 20
-68.87
 30
0.0
 40
2.0
  0
CIRCLE
  5
B71
330
1F
100
AcDbEntity
  8
0
100
AcDbCircle
 10
-189.5381
 20
-63.8712
 30
0.0
 40
2.0
  0
CIRCLE
  5
B72
330
1F
100
AcDbEntity
  8
0
100
AcDbCircle
 10
-189.5381
 20
-58.8724
 30
0.0
 40
2.0
  0
CIRCLE
  5
B73
330
1F
100
AcDbEntity
  8
0
100
AcDbCircle
 10
-189.5381
 20
-53.87360000000001
 30
0.0
 40
2.0
  0
CIRCLE
  5
B74
330
1F
100
AcDbEntity
  8
0
100
AcDbCircle
 10
-189.5381
 20
-48.8748
 30
0.0
 40
2.0
  0
CIRCLE
  5
B75
330
1F
100
AcDbEntity
  8
0
100
AcDbCircle
 10
-189.5381
 20
-43.876
 30
0.0
 40
2.0
  0
CIRCLE
  5
B76
330
1F
100
AcDbEntity
  8
0
100
AcDbCircle
 10
-189.5381
 20
-38.8772
 30
0.0
 40
2.0
  0
CIRCLE
  5
B77
330
1F
100
AcDbEntity
  8
0
100
AcDbCircle
 10
-189.5381
 20
-33.8784
 30
0.0
 40
2.0
  0
CIRCLE
  5
B78
330
1F
100
AcDbEntity
  8
0
100
AcDbCircle
 10
-189.5381
 20
-28.8796
 30
0.0
 40
2.0
  0
CIRCLE
  5
B79
330
1F
100
AcDbEntity
  8
0
100
AcDbCircle
 10
-189.5381
 20
-23.8808
 30
0.0
 40
2.0
  0
CIRCLE
  5
B7A
330
1F
100
AcDbEntity
  8
0
100
AcDbCircle
 10
-189.5381
 20
-18.882
 30
0.0
 40
1.999999999999999
  0
CIRCLE
  5
B7B
330
1F
100
AcDbEntity
  8
0
100
AcDbCircle
 10
-189.5381
 20
-13.8832
 30
0.0
 40
2.0
  0
CIRCLE
  5
B7C
330
1F
100
AcDbEntity
  8
0
100
AcDbCircle
 10
-189.5381
 20
-8.884399999999997
 30
0.0
 40
1.999999999999999
  0
CIRCLE
  5
B7D
330
1F
100
AcDbEntity
  8
0
100
AcDbCircle
 10
-189.5381
 20
-3.885599999999998
 30
0.0
 40
2.0
  0
CIRCLE
  5
B7E
330
1F
100
AcDbEntity
  8
0
100
AcDbCircle
 10
-189.5381
 20
1.113199999999998
 30
0.0
 40
1.999999999999999
  0
CIRCLE
  5
B7F
330
1F
100
AcDbEntity
  8
0
100
AcDbCircle
 10
-189.5381
 20
6.112
 30
0.0
 40
2.0
  0
CIRCLE
  5
B80
330
1F
100
AcDbEntity
  8
0
100
AcDbCircle
 10
-189.5381
 20
11.1108
 30
0.0
 40
2.0
  0
CIRCLE
  5
B81
330
1F
100
AcDbEntity
  8
0
100
AcDbCircle
 10
-189.5381
 20
16.1097
 30
0.0
 40
2.0
  0
CIRCLE
  5
B82
330
1F
100
AcDbEntity
  8
0
100
AcDbCircle
 10
-189.5381
 20
21.1085
 30
0.0
 40
2.0
  0
CIRCLE
  5
B83
330
1F
100
AcDbEntity
  8
0
100
AcDbCircle
 10
-189.5381
 20
26.1073
 30
0.0
 40
2.0
  0
CIRCLE
  5
B84
330
1F
100
AcDbEntity
  8
0
100
AcDbCircle
 10
-189.5381
 20
31.1061
 30
0.0
 40
1.999999999999999
  0
CIRCLE
  5
B85
330
1F
100
AcDbEntity
  8
0
100
AcDbCircle
 10
-189.5381
 20
36.1049
 30
0.0
 40
2.0
  0
CIRCLE
  5
B86
330
1F
100
AcDbEntity
  8
0
100
AcDbCircle
 10
-189.5381
 20
41.1037
 30
0.0
 40
2.0
  0
CIRCLE
  5
B87
330
1F
100
AcDbEntity
  8
0
100
AcDbCircle
 10
-189.5381
 20
46.10249999999999
 30
0.0
 40
1.999999999999998
  0
CIRCLE
  5
B88
330
1F
100
AcDbEntity
  8
0
100
AcDbCircle
 10
-189.5381
 20
51.1013
 30
0.0
 40
2.0
  0
CIRCLE
  5
B89
330
1F
100
AcDbEntity
  8
0
100
AcDbCircle
 10
-189.5381
 20
56.10009999999999
 30
0.0
 40
2.0
  0
CIRCLE
  5
B8A
330
1F
100
AcDbEntity
  8
0
100
AcDbCircle
 10
-189.5381
 20
61.0989
 30
0.0
 40
2.0
  0
CIRCLE
  5
B8B
330
1F
100
AcDbEntity
  8
0
100
AcDbCircle
 10
-189.5381
 20
66.09770000000001
 30
0.0
 40
2.0
  0
CIRCLE
  5
B8C
330
1F
100
AcDbEntity
  8
0
100
AcDbCircle
 10
-189.5381
 20
71.09650000000002
 30
0.0
 40
2.000000000000003
  0
CIRCLE
  5
B8D
330
1F
100
AcDbEntity
  8
0
100
AcDbCircle
 10
-189.5381
 20
76.09529999999998
 30
0.0
 40
1.999999999999995
  0
CIRCLE
  5
B8E
330
1F
100
AcDbEntity
  8
0
100
AcDbCircle
 10
-189.5381
 20
81.0941
 30
0.0
 40
1.999999999999995
  0
CIRCLE
  5
B8F
330
1F
100
AcDbEntity
  8
0
100
AcDbCircle
 10
-189.5381
 20
86.09289999999999
 30
0.0
 40
2.0
  0
CIRCLE
  5
B90
330
1F
100
AcDbEntity
  8
0
100
AcDbCircle
 10
-189.5381
 20
91.0917
 30
0.0
 40
1.999999999999995
  0
CIRCLE
  5
B91
330
1F
100
AcDbEntity
  8
0
100
AcDbCircle
 10
-189.5381
 20
96.09050000000001
 30
0.0
 40
2.0
  0
CIRCLE
  5
B92
330
1F
100
AcDbEntity
  8
0
100
AcDbCircle
 10
-189.5381
 20
101.0893
 30
0.0
 40
2.0
  0
CIRCLE
  5
B93
330
1F
100
AcDbEntity
  8
0
100
AcDbCircle
 10
-189.5381
 20
106.0881
 30
0.0
 40
2.0
  0
CIRCLE
  5
B94
330
1F
100
AcDbEntity
  8
0
100
AcDbCircle
 10
-189.5381
 20
111.087
 30
0.0
 40
2.0
  0
CIRCLE
  5
B95
330
1F
100
AcDbEntity
  8
0
100
AcDbCircle
 10
-189.5381
 20
116.0858
 30
0.0
 40
2.0
  0
CIRCLE
  5
B96
330
1F
100
AcDbEntity
  8
0
100
AcDbCircle
 10
-189.5381
 20
121.0846
 30
0.0
 40
2.0
  0
CIRCLE
  5
B97
330
1F
100
AcDbEntity
  8
0
100
AcDbCircle
 10
-189.5381
 20
126.0834
 30
0.0
 40
2.000000000000003
  0
CIRCLE
  5
B98
330
1F
100
AcDbEntity
  8
0
100
AcDbCircle
 10
-189.5381
 20
131.0822
 30
0.0
 40
2.0
  0
CIRCLE
  5
B99
330
1F
100
AcDbEntity
  8
0
100
AcDbCircle
 10
-189.5381
 20
136.081
 30
0.0
 40
2.0
  0
CIRCLE
  5
B9A
330
1F
100
AcDbEntity
  8
0
100
AcDbCircle
 10
-189.5381
 20
141.0798
 30
0.0
 40
2.0
  0
CIRCLE
  5
B9B
330
1F
100
AcDbEntity
  8
0
100
AcDbCircle
 10
-189.5381
 20
146.0786
 30
0.0
 40
2.0
  0
CIRCLE
  5
B9C
330
1F
100
AcDbEntity
  8
0
100
AcDbCircle
 10
-189.5381
 20
151.0774
 30
0.0
 40
2.0
  0
CIRCLE
  5
B9D
330
1F
100
AcDbEntity
  8
0
100
AcDbCircle
 10
-189.5381
 20
156.0762
 30
0.0
 40
2.0
  0
CIRCLE
  5
B9E
330
1F
100
AcDbEntity
  8
0
100
AcDbCircle
 10
-189.5381
 20
161.075
 30
0.0
 40
2.0
  0
CIRCLE
  5
B9F
330
1F
100
AcDbEntity
  8
0
100
AcDbCircle
 10
-189.5381
 20
166.0738
 30
0.0
 40
2.0
  0
CIRCLE
  5
BA0
330
1F
100
AcDbEntity
  8
0
100
AcDbCircle
 10
-189.5381
 20
171.0726
 30
0.0
 40
2.0
  0
CIRCLE
  5
BA1
330
1F
100
AcDbEntity
  8
0
100
AcDbCircle
 10
-189.5381
 20
176.0714
 30
0.0
 40
2.0
  0
CIRCLE
  5
BA2
330
1F
100
AcDbEntity
  8
0
100
AcDbCircle
 10
-189.5381
 20
181.0702
 30
0.0
 40
2.0
  0
CIRCLE
  5
BA3
330
1F
100
AcDbEntity
  8
0
100
AcDbCircle
 10
-189.5381
 20
186.069
 30
0.0
 40
2.0
  0
CIRCLE
  5
BA4
330
1F
100
AcDbEntity
  8
0
100
AcDbCircle
 10
-189.5381
 20
191.0678
 30
0.0
 40
2.0
  0
CIRCLE
  5
BA5
330
1F
100
AcDbEntity
  8
0
100
AcDbCircle
 10
-189.5381
 20
196.0666
 30
0.0
 40
2.0
  0
CIRCLE
  5
BA6
330
1F
100
AcDbEntity
  8
0
100
AcDbCircle
 10
-189.5381
 20
201.0654
 30
0.0
 40
2.0
  0
CIRCLE
  5
BA7
330
1F
100
AcDbEntity
  8
0
100
AcDbCircle
 10
-189.5381
 20
206.0643
 30
0.0
 40
2.0
  0
CIRCLE
  5
BA8
330
1F
100
AcDbEntity
  8
0
100
AcDbCircle
 10
-189.5381
 20
211.0631
 30
0.0
 40
2.0
  0
CIRCLE
  5
BA9
330
1F
100
AcDbEntity
  8
0
100
AcDbCircle
 10
-189.5381
 20
216.0619
 30
0.0
 40
2.0
  0
CIRCLE
  5
BAA
330
1F
100
AcDbEntity
  8
0
100
AcDbCircle
 10
-189.5381
 20
221.0607
 30
0.0
 40
2.0
  0
CIRCLE
  5
BAB
330
1F
100
AcDbEntity
  8
0
100
AcDbCircle
 10
-189.5381
 20
226.0595
 30
0.0
 40
2.0
  0
CIRCLE
  5
BAC
330
1F
100
AcDbEntity
  8
0
100
AcDbCircle
 10
-189.5381
 20
231.0583
 30
0.0
 40
2.0
  0
CIRCLE
  5
BAD
330
1F
100
AcDbEntity
  8
0
100
AcDbCircle
 10
-189.5381
 20
236.0571
 30
0.0
 40
2.0
  0
CIRCLE
  5
BAE
330
1F
100
AcDbEntity
  8
0
100
AcDbCircle
 10
-189.5381
 20
241.0559
 30
0.0
 40
2.0
  0
CIRCLE
  5
BAF
330
1F
100
AcDbEntity
  8
0
100
AcDbCircle
 10
-189.5381
 20
246.0547
 30
0.0
 40
2.0
  0
CIRCLE
  5
BB0
330
1F
100
AcDbEntity
  8
0
100
AcDbCircle
 10
-189.5381
 20
251.0535
 30
0.0
 40
2.0
  0
CIRCLE
  5
BB1
330
1F
100
AcDbEntity
  8
0
100
AcDbCircle
 10
-189.5381
 20
256.0523
 30
0.0
 40
2.0
  0
CIRCLE
  5
BB2
330
1F
100
AcDbEntity
  8
0
100
AcDbCircle
 10
-189.5381
 20
261.0511
 30
0.0
 40
2.0
  0
CIRCLE
  5
BB3
330
1F
100
AcDbEntity
  8
0
100
AcDbCircle
 10
-189.5381
 20
266.0499
 30
0.0
 40
2.0
  0
CIRCLE
  5
BB4
330
1F
100
AcDbEntity
  8
0
100
AcDbCircle
 10
-189.5381
 20
271.0487
 30
0.0
 40
2.0
  0
CIRCLE
  5
BB5
330
1F
100
AcDbEntity
  8
0
100
AcDbCircle
 10
-189.5381
 20
276.0475
 30
0.0
 40
2.0
  0
CIRCLE
  5
BB6
330
1F
100
AcDbEntity
  8
0
100
AcDbCircle
 10
-189.5381
 20
281.0463
 30
0.0
 40
2.0
  0
CIRCLE
  5
BB7
330
1F
100
AcDbEntity
  8
0
100
AcDbCircle
 10
-189.5381
 20
286.0451
 30
0.0
 40
2.0
  0
CIRCLE
  5
BB8
330
1F
100
AcDbEntity
  8
0
100
AcDbCircle
 10
-189.5381
 20
291.0439
 30
0.0
 40
2.0
  0
CIRCLE
  5
BB9
330
1F
100
AcDbEntity
  8
0
100
AcDbCircle
 10
-189.5381
 20
296.0427
 30
0.0
 40
2.0
  0
CIRCLE
  5
BBA
330
1F
100
AcDbEntity
  8
0
100
AcDbCircle
 10
-189.5381
 20
301.0416
 30
0.0
 40
2.0
  0
CIRCLE
  5
BBB
330
1F
100
AcDbEntity
  8
0
100
AcDbCircle
 10
-189.5381
 20
306.0404
 30
0.0
 40
2.0
  0
CIRCLE
  5
BBC
330
1F
100
AcDbEntity
  8
0
100
AcDbCircle
 10
-189.5381
 20
311.0392
 30
0.0
 40
2.0
  0
CIRCLE
  5
BBD
330
1F
100
AcDbEntity
  8
0
100
AcDbCircle
 10
-189.5381
 20
316.038
 30
0.0
 40
2.0
  0
CIRCLE
  5
BBE
330
1F
100
AcDbEntity
  8
0
100
AcDbCircle
 10
-189.5381
 20
321.0368
 30
0.0
 40
2.0
  0
CIRCLE
  5
BBF
330
1F
100
AcDbEntity
  8
0
100
AcDbCircle
 10
-189.5381
 20
326.0356
 30
0.0
 40
2.0
  0
CIRCLE
  5
BC0
330
1F
100
AcDbEntity
  8
0
100
AcDbCircle
 10
-189.5381
 20
331.0344
 30
0.0
 40
2.0
  0
CIRCLE
  5
BC1
330
1F
100
AcDbEntity
  8
0
100
AcDbCircle
 10
-189.5381
 20
336.0332
 30
0.0
 40
2.0
  0
CIRCLE
  5
BC2
330
1F
100
AcDbEntity
  8
0
100
AcDbCircle
 10
-189.5381
 20
341.032
 30
0.0
 40
2.0
  0
CIRCLE
  5
BC3
330
1F
100
AcDbEntity
  8
0
100
AcDbCircle
 10
-189.5381
 20
346.0308
 30
0.0
 40
2.0
  0
CIRCLE
  5
BC4
330
1F
100
AcDbEntity
  8
0
100
AcDbCircle
 10
-189.5381
 20
351.0296
 30
0.0
 40
2.0
  0
CIRCLE
  5
BC5
330
1F
100
AcDbEntity
  8
0
100
AcDbCircle
 10
-189.5381
 20
356.0284
 30
0.0
 40
2.0
  0
CIRCLE
  5
BC6
330
1F
100
AcDbEntity
  8
0
100
AcDbCircle
 10
-189.5381
 20
361.0272
 30
0.0
 40
2.0
  0
CIRCLE
  5
BC7
330
1F
100
AcDbEntity
  8
0
100
AcDbCircle
 10
-189.5381
 20
366.026
 30
0.0
 40
2.0
  0
CIRCLE
  5
BC8
330
1F
100
AcDbEntity
  8
0
100
AcDbCircle
 10
-189.5381
 20
371.0248
 30
0.0
 40
2.0
  0
CIRCLE
  5
BC9
330
1F
100
AcDbEntity
  8
0
100
AcDbCircle
 10
-189.5381
 20
376.0236
 30
0.0
 40
2.0
  0
CIRCLE
  5
BCA
330
1F
100
AcDbEntity
  8
0
100
AcDbCircle
 10
-189.5381
 20
381.0224
 30
0.0
 40
2.0
  0
CIRCLE
  5
BCB
330
1F
100
AcDbEntity
  8
0
100
AcDbCircle
 10
-189.5381
 20
386.0212
 30
0.0
 40
2.0
  0
CIRCLE
  5
BCC
330
1F
100
AcDbEntity
  8
0
100
AcDbCircle
 10
-189.5381
 20
391.02
 30
0.0
 40
2.0
  0
CIRCLE
  5
BCD
330
1F
100
AcDbEntity
  8
0
100
AcDbCircle
 10
-189.5381
 20
396.0189
 30
0.0
 40
2.0
  0
CIRCLE
  5
BCE
330
1F
100
AcDbEntity
  8
0
100
AcDbCircle
 10
-189.5381
 20
401.0176999999997
 30
0.0
 40
2.0
  0
CIRCLE
  5
BCF
330
1F
100
AcDbEntity
  8
0
100
AcDbCircle
 10
-189.5381
 20
406.0165
 30
0.0
 40
2.0
  0
CIRCLE
  5
BD0
330
1F
100
AcDbEntity
  8
0
100
AcDbCircle
 10
-189.5381
 20
411.0152999999998
 30
0.0
 40
2.0
  0
CIRCLE
  5
BD1
330
1F
100
AcDbEntity
  8
0
100
AcDbCircle
 10
-189.5381
 20
416.0140999999998
 30
0.0
 40
2.0
  0
CIRCLE
  5
BD2
330
1F
100
AcDbEntity
  8
0
100
AcDbCircle
 10
-189.5381
 20
421.0128999999998
 30
0.0
 40
2.0
  0
CIRCLE
  5
BD3
330
1F
100
AcDbEntity
  8
0
100
AcDbCircle
 10
-189.5381
 20
426.0117
 30
0.0
 40
2.0
  0
CIRCLE
  5
BD4
330
1F
100
AcDbEntity
  8
0
100
AcDbCircle
 10
-189.5381
 20
431.0104999999999
 30
0.0
 40
2.0
  0
CIRCLE
  5
BD5
330
1F
100
AcDbEntity
  8
0
100
AcDbCircle
 10
-189.5381
 20
436.0092999999998
 30
0.0
 40
2.0
  0
CIRCLE
  5
BD6
330
1F
100
AcDbEntity
  8
0
100
AcDbCircle
 10
-189.5381
 20
441.0080999999998
 30
0.0
 40
2.0
  0
CIRCLE
  5
BD7
330
1F
100
AcDbEntity
  8
0
100
AcDbCircle
 10
-189.5381
 20
446.0068999999998
 30
0.0
 40
1.999999999999971
  0
CIRCLE
  5
BD8
330
1F
100
AcDbEntity
  8
0
100
AcDbCircle
 10
-189.5381
 20
451.0056999999997
 30
0.0
 40
2.0
  0
CIRCLE
  5
BD9
330
1F
100
AcDbEntity
  8
0
100
AcDbCircle
 10
-189.5381
 20
456.0045
 30
0.0
 40
2.0
  0
CIRCLE
  5
BDA
330
1F
100
AcDbEntity
  8
0
100
AcDbCircle
 10
-189.5381
 20
461.0033
 30
0.0
 40
2.0
  0
CIRCLE
  5
BDB
330
1F
100
AcDbEntity
  8
0
100
AcDbCircle
 10
-189.5381
 20
466.0020999999998
 30
0.0
 40
2.0
  0
CIRCLE
  5
BDC
330
1F
100
AcDbEntity
  8
0
100
AcDbCircle
 10
-189.5381
 20
471.0008999999998
 30
0.0
 40
2.0
  0
CIRCLE
  5
BDD
330
1F
100
AcDbEntity
  8
0
100
AcDbCircle
 10
-189.5381
 20
475.9997
 30
0.0
 40
2.0
  0
CIRCLE
  5
BDE
330
1F
100
AcDbEntity
  8
0
100
AcDbCircle
 10
-189.5381
 20
480.9984999999998
 30
0.0
 40
2.0
  0
CIRCLE
  5
BDF
330
1F
100
AcDbEntity
  8
0
100
AcDbCircle
 10
-189.5381
 20
485.9972999999998
 30
0.0
 40
2.0
  0
CIRCLE
  5
BE0
330
1F
100
AcDbEntity
  8
0
100
AcDbCircle
 10
-189.5381
 20
490.9961999999999
 30
0.0
 40
2.0
  0
CIRCLE
  5
BE1
330
1F
100
AcDbEntity
  8
0
100
AcDbCircle
 10
-189.5381
 20
495.995
 30
0.0
 40
2.0
  0
CIRCLE
  5
BE2
330
1F
100
AcDbEntity
  8
0
100
AcDbCircle
 10
-189.5381
 20
500.9938
 30
0.0
 40
2.0
  0
CIRCLE
  5
BE3
330
1F
100
AcDbEntity
  8
0
100
AcDbCircle
 10
-189.5381
 20
505.9925999999999
 30
0.0
 40
1.999999999999971
  0
CIRCLE
  5
BE4
330
1F
100
AcDbEntity
  8
0
100
AcDbCircle
 10
-189.5381
 20
510.9913999999998
 30
0.0
 40
2.0
  0
CIRCLE
  5
BE5
330
1F
100
AcDbEntity
  8
0
100
AcDbCircle
 10
-189.5381
 20
515.9901999999998
 30
0.0
 40
2.0
  0
CIRCLE
  5
BE6
330
1F
100
AcDbEntity
  8
0
100
AcDbCircle
 10
-189.5381
 20
520.989
 30
0.0
 40
2.0
  0
CIRCLE
  5
BE7
330
1F
100
AcDbEntity
  8
0
100
AcDbCircle
 10
-189.5381
 20
525.9877999999998
 30
0.0
 40
2.0
  0
CIRCLE
  5
BE8
330
1F
100
AcDbEntity
  8
0
100
AcDbCircle
 10
-189.5381
 20
530.9865999999998
 30
0.0
 40
2.0
  0
CIRCLE
  5
BE9
330
1F
100
AcDbEntity
  8
0
100
AcDbCircle
 10
-189.5381
 20
535.9854
 30
0.0
 40
2.0
  0
CIRCLE
  5
BEA
330
1F
100
AcDbEntity
  8
0
100
AcDbCircle
 10
-189.5381
 20
540.9841999999998
 30
0.0
 40
2.0
  0
CIRCLE
  5
BEB
330
1F
100
AcDbEntity
  8
0
100
AcDbCircle
 10
-189.5381
 20
545.9830000000001
 30
0.0
 40
2.0
  0
CIRCLE
  5
BEC
330
1F
100
AcDbEntity
  8
0
100
AcDbCircle
 10
-189.5381
 20
550.9818
 30
0.0
 40
2.0
  0
CIRCLE
  5
BED
330
1F
100
AcDbEntity
  8
0
100
AcDbCircle
 10
-189.5381
 20
555.9805999999999
 30
0.0
 40
2.0
  0
CIRCLE
  5
BEE
330
1F
100
AcDbEntity
  8
0
100
AcDbCircle
 10
-189.5381
 20
560.9794
 30
0.0
 40
2.0
  0
CIRCLE
  5
BEF
330
1F
100
AcDbEntity
  8
0
100
AcDbCircle
 10
-189.5381
 20
565.9781999999998
 30
0.0
 40
2.0
  0
CIRCLE
  5
BF0
330
1F
100
AcDbEntity
  8
0
100
AcDbCircle
 10
-189.5381
 20
570.9769999999998
 30
0.0
 40
2.0
  0
CIRCLE
  5
BF1
330
1F
100
AcDbEntity
  8
0
100
AcDbCircle
 10
-189.5381
 20
575.9758000000001
 30
0.0
 40
1.999999999999971
  0
CIRCLE
  5
BF2
330
1F
100
AcDbEntity
  8
0
100
AcDbCircle
 10
-189.5381
 20
580.9746
 30
0.0
 40
2.0
  0
CIRCLE
  5
BF3
330
1F
100
AcDbEntity
  8
0
100
AcDbCircle
 10
-189.5381
 20
585.9734999999997
 30
0.0
 40
2.0
  0
CIRCLE
  5
BF4
330
1F
100
AcDbEntity
  8
0
100
AcDbCircle
 10
-189.5381
 20
590.9723
 30
0.0
 40
2.0
  0
CIRCLE
  5
BF5
330
1F
100
AcDbEntity
  8
0
100
AcDbCircle
 10
-189.5381
 20
595.9710999999997
 30
0.0
 40
2.0
  0
CIRCLE
  5
BF6
330
1F
100
AcDbEntity
  8
0
100
AcDbCircle
 10
-189.5381
 20
600.9699
 30
0.0
 40
2.0
  0
CIRCLE
  5
BF7
330
1F
100
AcDbEntity
  8
0
100
AcDbCircle
 10
-189.5381
 20
605.9686999999999
 30
0.0
 40
1.999999999999971
  0
CIRCLE
  5
BF8
330
1F
100
AcDbEntity
  8
0
100
AcDbCircle
 10
-189.5381
 20
610.9674999999997
 30
0.0
 40
2.0
  0
CIRCLE
  5
BF9
330
1F
100
AcDbEntity
  8
0
100
AcDbCircle
 10
-189.5381
 20
615.9663
 30
0.0
 40
2.0
  0
CIRCLE
  5
BFA
330
1F
100
AcDbEntity
  8
0
100
AcDbCircle
 10
-189.5381
 20
620.9651
 30
0.0
 40
2.0
  0
CIRCLE
  5
BFB
330
1F
100
AcDbEntity
  8
0
100
AcDbCircle
 10
-189.5381
 20
625.9638999999999
 30
0.0
 40
2.0
  0
CIRCLE
  5
BFC
330
1F
100
AcDbEntity
  8
0
100
AcDbCircle
 10
-189.5381
 20
630.9627
 30
0.0
 40
2.0
  0
CIRCLE
  5
BFD
330
1F
100
AcDbEntity
  8
0
100
AcDbCircle
 10
-189.5381
 20
635.9614999999998
 30
0.0
 40
2.0
  0
CIRCLE
  5
BFE
330
1F
100
AcDbEntity
  8
0
100
AcDbCircle
 10
-189.5381
 20
640.9602999999998
 30
0.0
 40
2.0
  0
CIRCLE
  5
BFF
330
1F
100
AcDbEntity
  8
0
100
AcDbCircle
 10
-189.5381
 20
645.9591
 30
0.0
 40
2.0
  0
CIRCLE
  5
C00
330
1F
100
AcDbEntity
  8
0
100
AcDbCircle
 10
-189.5381
 20
650.9578999999997
 30
0.0
 40
2.000000000000027
  0
CIRCLE
  5
C01
330
1F
100
AcDbEntity
  8
0
100
AcDbCircle
 10
-189.5381
 20
655.9566999999997
 30
0.0
 40
2.0
  0
CIRCLE
  5
C02
330
1F
100
AcDbEntity
  8
0
100
AcDbCircle
 10
-189.5381
 20
660.9555
 30
0.0
 40
2.0
  0
CIRCLE
  5
C03
330
1F
100
AcDbEntity
  8
0
100
AcDbCircle
 10
-189.5381
 20
665.9542999999999
 30
0.0
 40
2.0
  0
CIRCLE
  5
C04
330
1F
100
AcDbEntity
  8
0
100
AcDbCircle
 10
-189.5381
 20
670.9530999999997
 30
0.0
 40
2.0
  0
CIRCLE
  5
C05
330
1F
100
AcDbEntity
  8
0
100
AcDbCircle
 10
-189.5381
 20
675.9519
 30
0.0
 40
2.0
  0
CIRCLE
  5
C06
330
1F
100
AcDbEntity
  8
0
100
AcDbCircle
 10
-189.5381
 20
680.9507999999997
 30
0.0
 40
2.0
  0
CIRCLE
  5
C07
330
1F
100
AcDbEntity
  8
0
100
AcDbCircle
 10
-189.5381
 20
685.9496
 30
0.0
 40
2.0
  0
CIRCLE
  5
C08
330
1F
100
AcDbEntity
  8
0
100
AcDbCircle
 10
-189.5381
 20
690.9483999999999
 30
0.0
 40
2.0
  0
CIRCLE
  5
C09
330
1F
100
AcDbEntity
  8
0
100
AcDbCircle
 10
-189.5381
 20
695.9471999999997
 30
0.0
 40
2.0
  0
CIRCLE
  5
C0A
330
1F
100
AcDbEntity
  8
0
100
AcDbCircle
 10
-189.5381
 20
700.946
 30
0.0
 40
2.0
  0
CIRCLE
  5
C0B
330
1F
100
AcDbEntity
  8
0
100
AcDbCircle
 10
-189.5381
 20
705.9447999999998
 30
0.0
 40
2.0
  0
CIRCLE
  5
C0C
330
1F
100
AcDbEntity
  8
0
100
AcDbCircle
 10
-189.5381
 20
710.9435999999996
 30
0.0
 40
2.0
  0
CIRCLE
  5
C0D
330
1F
100
AcDbEntity
  8
0
100
AcDbCircle
 10
-189.5381
 20
715.9423999999997
 30
0.0
 40
2.000000000000055
  0
CIRCLE
  5
C0E
330
1F
100
AcDbEntity
  8
0
100
AcDbCircle
 10
-189.5381
 20
720.9411999999996
 30
0.0
 40
2.0
  0
CIRCLE
  5
C0F
330
1F
100
AcDbEntity
  8
0
100
AcDbCircle
 10
-189.5381
 20
725.94
 30
0.0
 40
2.0
  0
CIRCLE
  5
C10
330
1F
100
AcDbEntity
  8
0
100
AcDbCircle
 10
-189.5381
 20
730.9388
 30
0.0
 40
2.0
  0
CIRCLE
  5
C11
330
1F
100
AcDbEntity
  8
0
100
AcDbCircle
 10
-189.5381
 20
735.9375999999997
 30
0.0
 40
2.0
  0
CIRCLE
  5
C12
330
1F
100
AcDbEntity
  8
0
100
AcDbCircle
 10
-189.5381
 20
740.9364
 30
0.0
 40
2.0
  0
CIRCLE
  5
C13
330
1F
100
AcDbEntity
  8
0
100
AcDbCircle
 10
-189.5381
 20
745.9351999999999
 30
0.0
 40
2.0
  0
CIRCLE
  5
C14
330
1F
100
AcDbEntity
  8
0
100
AcDbCircle
 10
-189.5381
 20
750.9339999999999
 30
0.0
 40
2.0
  0
CIRCLE
  5
C15
330
1F
100
AcDbEntity
  8
0
100
AcDbCircle
 10
-189.5381
 20
755.9328
 30
0.0
 40
2.0
  0
CIRCLE
  5
C16
330
1F
100
AcDbEntity
  8
0
100
AcDbCircle
 10
-189.5381
 20
760.9315999999998
 30
0.0
 40
2.0
  0
CIRCLE
  5
C17
330
1F
100
AcDbEntity
  8
0
100
AcDbCircle
 10
-189.5381
 20
765.9303999999998
 30
0.0
 40
2.0
  0
CIRCLE
  5
C18
330
1F
100
AcDbEntity
  8
0
100
AcDbCircle
 10
-189.5381
 20
770.9292
 30
0.0
 40
2.0
  0
CIRCLE
  5
C19
330
1F
100
AcDbEntity
  8
0
100
AcDbCircle
 10
-189.5381
 20
775.9280999999998
 30
0.0
 40
2.0
  0
CIRCLE
  5
C1A
330
1F
100
AcDbEntity
  8
0
100
AcDbCircle
 10
-189.5381
 20
780.9269
 30
0.0
 40
2.0
  0
CIRCLE
  5
C1B
330
1F
100
AcDbEntity
  8
0
100
AcDbCircle
 10
-189.5381
 20
785.9256999999999
 30
0.0
 40
2.0
  0
CIRCLE
  5
C1C
330
1F
100
AcDbEntity
  8
0
100
AcDbCircle
 10
-189.5381
 20
790.9244999999997
 30
0.0
 40
2.0
  0
CIRCLE
  5
C1D
330
1F
100
AcDbEntity
  8
0
100
AcDbCircle
 10
-189.5381
 20
795.9233
 30
0.0
 40
2.0
  0
CIRCLE
  5
C1E
330
1F
100
AcDbEntity
  8
0
100
AcDbCircle
 10
-189.5381
 20
800.9221
 30
0.0
 40
1.999999999999971
  0
CIRCLE
  5
C1F
330
1F
100
AcDbEntity
  8
0
100
AcDbCircle
 10
-189.5381
 20
805.9208999999999
 30
0.0
 40
2.000000000000027
  0
CIRCLE
  5
C20
330
1F
100
AcDbEntity
  8
0
100
AcDbCircle
 10
-189.5381
 20
810.9197000000001
 30
0.0
 40
2.000000000000027
  0
CIRCLE
  5
C21
330
1F
100
AcDbEntity
  8
0
100
AcDbCircle
 10
-189.5381
 20
815.9185
 30
0.0
 40
2.000000000000027
  0
CIRCLE
  5
C22
330
1F
100
AcDbEntity
  8
0
100
AcDbCircle
 10
-189.5381
 20
820.9172999999998
 30
0.0
 40
1.999999999999971
  0
CIRCLE
  5
C23
330
1F
100
AcDbEntity
  8
0
100
AcDbCircle
 10
-189.5381
 20
825.9161000000002
 30
0.0
 40
1.999999999999971
  0
CIRCLE
  5
C24
330
1F
100
AcDbEntity
  8
0
100
AcDbCircle
 10
-189.5381
 20
830.9148999999999
 30
0.0
 40
1.999999999999971
  0
CIRCLE
  5
C25
330
1F
100
AcDbEntity
  8
0
100
AcDbCircle
 10
-189.5381
 20
835.9136999999996
 30
0.0
 40
2.000000000000027
  0
CIRCLE
  5
C26
330
1F
100
AcDbEntity
  8
0
100
AcDbCircle
 10
-189.5381
 20
840.9124999999997
 30
0.0
 40
2.000000000000055
  0
CIRCLE
  5
C27
330
1F
100
AcDbEntity
  8
0
100
AcDbCircle
 10
-189.5381
 20
845.9113
 30
0.0
 40
1.999999999999971
  0
CIRCLE
  5
C28
330
1F
100
AcDbEntity
  8
0
100
AcDbCircle
 10
-189.5381
 20
850.9101000000001
 30
0.0
 40
1.999999999999971
  0
CIRCLE
  5
C29
330
1F
100
AcDbEntity
  8
0
100
AcDbCircle
 10
-189.5381
 20
855.9088999999996
 30
0.0
 40
1.999999999999971
  0
CIRCLE
  5
C2A
330
1F
100
AcDbEntity
  8
0
100
AcDbCircle
 10
-189.5381
 20
860.9076999999999
 30
0.0
 40
2.000000000000027
  0
CIRCLE
  5
C2B
330
1F
100
AcDbEntity
  8
0
100
AcDbCircle
 10
-189.5381
 20
865.9065
 30
0.0
 40
2.000000000000027
  0
CIRCLE
  5
C2C
330
1F
100
AcDbEntity
  8
0
100
AcDbCircle
 10
-189.5381
 20
870.9053999999996
 30
0.0
 40
1.999999999999971
  0
CIRCLE
  5
C2D
330
1F
100
AcDbEntity
  8
0
100
AcDbCircle
 10
-189.5381
 20
875.9041999999999
 30
0.0
 40
2.000000000000027
  0
CIRCLE
  5
C2E
330
1F
100
AcDbEntity
  8
0
100
AcDbCircle
 10
-189.5381
 20
880.9029999999998
 30
0.0
 40
2.000000000000027
  0
CIRCLE
  5
C2F
330
1F
100
AcDbEntity
  8
0
100
AcDbCircle
 10
-189.5381
 20
885.9017999999997
 30
0.0
 40
2.000000000000027
  0
CIRCLE
  5
C30
330
1F
100
AcDbEntity
  8
0
100
AcDbCircle
 10
-189.5381
 20
890.9006000000001
 30
0.0
 40
2.000000000000027
  0
CIRCLE
  5
C31
330
1F
100
AcDbEntity
  8
0
100
AcDbCircle
 10
-189.5381
 20
895.8994
 30
0.0
 40
2.0
  0
CIRCLE
  5
C32
330
1F
100
AcDbEntity
  8
0
100
AcDbCircle
 10
-189.5381
 20
900.8981999999999
 30
0.0
 40
2.0
  0
CIRCLE
  5
C33
330
1F
100
AcDbEntity
  8
0
100
AcDbCircle
 10
-189.5381
 20
905.897
 30
0.0
 40
2.0
  0
CIRCLE
  5
C34
330
1F
100
AcDbEntity
  8
0
100
AcDbCircle
 10
-189.5381
 20
910.8957999999999
 30
0.0
 40
2.0
  0
CIRCLE
  5
C35
330
1F
100
AcDbEntity
  8
0
100
AcDbCircle
 10
-189.5381
 20
915.8946
 30
0.0
 40
2.0
  0
CIRCLE
  5
C36
330
1F
100
AcDbEntity
  8
0
100
AcDbCircle
 10
-189.5381
 20
920.8934000000001
 30
0.0
 40
2.0
  0
CIRCLE
  5
C37
330
1F
100
AcDbEntity
  8
0
100
AcDbCircle
 10
-189.5381
 20
925.8922
 30
0.0
 40
2.0
  0
CIRCLE
  5
C38
330
1F
100
AcDbEntity
  8
0
100
AcDbCircle
 10
-189.5381
 20
930.891
 30
0.0
 40
2.000000000000027
  0
CIRCLE
  5
C39
330
1F
100
AcDbEntity
  8
0
100
AcDbCircle
 10
-189.5381
 20
935.8897999999999
 30
0.0
 40
2.0
  0
CIRCLE
  5
C3A
330
1F
100
AcDbEntity
  8
0
100
AcDbCircle
 10
-189.5381
 20
940.8886
 30
0.0
 40
2.0
  0
CIRCLE
  5
C3B
330
1F
100
AcDbEntity
  8
0
100
AcDbCircle
 10
-189.5381
 20
945.8873999999999
 30
0.0
 40
2.0
  0
CIRCLE
  5
C3C
330
1F
100
AcDbEntity
  8
0
100
AcDbCircle
 10
-189.5381
 20
950.8862
 30
0.0
 40
2.0
  0
CIRCLE
  5
C3D
330
1F
100
AcDbEntity
  8
0
100
AcDbCircle
 10
-189.5381
 20
955.8849999999999
 30
0.0
 40
2.0
  0
CIRCLE
  5
C3E
330
1F
100
AcDbEntity
  8
0
100
AcDbCircle
 10
-189.5381
 20
960.8838
 30
0.0
 40
2.0
  0
CIRCLE
  5
C3F
330
1F
100
AcDbEntity
  8
0
100
AcDbCircle
 10
-189.5381
 20
965.8827
 30
0.0
 40
2.0
  0
CIRCLE
  5
C40
330
1F
100
AcDbEntity
  8
0
100
AcDbCircle
 10
-189.5381
 20
970.8814999999999
 30
0.0
 40
2.0
  0
CIRCLE
  5
C41
330
1F
100
AcDbEntity
  8
0
100
AcDbCircle
 10
-189.5381
 20
975.8803
 30
0.0
 40
2.0
  0
CIRCLE
  5
C42
330
1F
100
AcDbEntity
  8
0
100
AcDbCircle
 10
-189.5381
 20
980.8790999999999
 30
0.0
 40
2.0
  0
CIRCLE
  5
C43
330
1F
100
AcDbEntity
  8
0
100
AcDbCircle
 10
-189.5381
 20
985.8779
 30
0.0
 40
2.0
  0
CIRCLE
  5
C44
330
1F
100
AcDbEntity
  8
0
100
AcDbCircle
 10
-189.5381
 20
990.8767
 30
0.0
 40
2.0
  0
CIRCLE
  5
C45
330
1F
100
AcDbEntity
  8
0
100
AcDbCircle
 10
-189.5381
 20
995.8755
 30
0.0
 40
2.0
  0
CIRCLE
  5
C46
330
1F
100
AcDbEntity
  8
0
100
AcDbCircle
 10
-189.5381
 20
1000.8743
 30
0.0
 40
2.0
  0
CIRCLE
  5
C47
330
1F
100
AcDbEntity
  8
0
100
AcDbCircle
 10
-189.5381
 20
1005.8731
 30
0.0
 40
2.0
  0
CIRCLE
  5
C48
330
1F
100
AcDbEntity
  8
0
100
AcDbCircle
 10
-189.5381
 20
1010.8719
 30
0.0
 40
2.0
  0
CIRCLE
  5
C49
330
1F
100
AcDbEntity
  8
0
100
AcDbCircle
 10
-189.5381
 20
1015.8707
 30
0.0
 40
2.0
  0
CIRCLE
  5
C4A
330
1F
100
AcDbEntity
  8
0
100
AcDbCircle
 10
-189.5381
 20
1020.8695
 30
0.0
 40
2.0
  0
CIRCLE
  5
C4B
330
1F
100
AcDbEntity
  8
0
100
AcDbCircle
 10
-189.5381
 20
1025.8683
 30
0.0
 40
2.000000000000027
  0
CIRCLE
  5
C4C
330
1F
100
AcDbEntity
  8
0
100
AcDbCircle
 10
-189.5381
 20
1030.8671
 30
0.0
 40
2.0
  0
CIRCLE
  5
C4D
330
1F
100
AcDbEntity
  8
0
100
AcDbCircle
 10
-189.5381
 20
1035.8659
 30
0.0
 40
2.0
  0
CIRCLE
  5
C4E
330
1F
100
AcDbEntity
  8
0
100
AcDbCircle
 10
-189.5381
 20
1040.8647
 30
0.0
 40
2.0
  0
CIRCLE
  5
C4F
330
1F
100
AcDbEntity
  8
0
100
AcDbCircle
 10
-189.5381
 20
1045.8635
 30
0.0
 40
2.0
  0
CIRCLE
  5
C50
330
1F
100
AcDbEntity
  8
0
100
AcDbCircle
 10
-189.5381
 20
1050.8623
 30
0.0
 40
2.0
  0
CIRCLE
  5
C51
330
1F
100
AcDbEntity
  8
0
100
AcDbCircle
 10
-189.5381
 20
1055.8611
 30
0.0
 40
2.0
  0
CIRCLE
  5
C52
330
1F
100
AcDbEntity
  8
0
100
AcDbCircle
 10
-189.5381
 20
1060.86
 30
0.0
 40
2.0
  0
CIRCLE
  5
C53
330
1F
100
AcDbEntity
  8
0
100
AcDbCircle
 10
-189.5381
 20
1065.8588
 30
0.0
 40
2.0
  0
CIRCLE
  5
C54
330
1F
100
AcDbEntity
  8
0
100
AcDbCircle
 10
-189.5381
 20
1070.8576
 30
0.0
 40
2.0
  0
CIRCLE
  5
C55
330
1F
100
AcDbEntity
  8
0
100
AcDbCircle
 10
-189.5381
 20
1075.8564
 30
0.0
 40
2.0
  0
CIRCLE
  5
C56
330
1F
100
AcDbEntity
  8
0
100
AcDbCircle
 10
-189.5381
 20
1080.8552
 30
0.0
 40
2.0
  0
CIRCLE
  5
C57
330
1F
100
AcDbEntity
  8
0
100
AcDbCircle
 10
-189.5381
 20
1085.854
 30
0.0
 40
2.0
  0
CIRCLE
  5
C58
330
1F
100
AcDbEntity
  8
0
100
AcDbCircle
 10
-189.5381
 20
1090.8528
 30
0.0
 40
2.0
  0
CIRCLE
  5
C59
330
1F
100
AcDbEntity
  8
0
100
AcDbCircle
 10
-189.5381
 20
1095.8516
 30
0.0
 40
2.0
  0
CIRCLE
  5
C5A
330
1F
100
AcDbEntity
  8
0
100
AcDbCircle
 10
-189.5381
 20
1100.8504
 30
0.0
 40
2.0
  0
CIRCLE
  5
C5B
330
1F
100
AcDbEntity
  8
0
100
AcDbCircle
 10
-189.5381
 20
1105.8492
 30
0.0
 40
2.0
  0
CIRCLE
  5
C5C
330
1F
100
AcDbEntity
  8
0
100
AcDbCircle
 10
-189.5381
 20
1110.848
 30
0.0
 40
2.0
  0
CIRCLE
  5
C5D
330
1F
100
AcDbEntity
  8
0
100
AcDbCircle
 10
-189.5381
 20
1115.8468
 30
0.0
 40
2.0
  0
CIRCLE
  5
C5E
330
1F
100
AcDbEntity
  8
0
100
AcDbCircle
 10
-189.5381
 20
1120.8456
 30
0.0
 40
2.0
  0
CIRCLE
  5
C5F
330
1F
100
AcDbEntity
  8
0
100
AcDbCircle
 10
-189.5381
 20
1125.8444
 30
0.0
 40
2.0
  0
CIRCLE
  5
C60
330
1F
100
AcDbEntity
  8
0
100
AcDbCircle
 10
-189.5381
 20
1130.8432
 30
0.0
 40
2.0
  0
CIRCLE
  5
C61
330
1F
100
AcDbEntity
  8
0
100
AcDbCircle
 10
-189.5381
 20
1135.842
 30
0.0
 40
2.0
  0
CIRCLE
  5
C62
330
1F
100
AcDbEntity
  8
0
100
AcDbCircle
 10
-189.5381
 20
1140.8408
 30
0.0
 40
2.0
  0
CIRCLE
  5
C63
330
1F
100
AcDbEntity
  8
0
100
AcDbCircle
 10
-189.5381
 20
1145.8396
 30
0.0
 40
2.0
  0
CIRCLE
  5
C64
330
1F
100
AcDbEntity
  8
0
100
AcDbCircle
 10
-189.5381
 20
1150.8384
 30
0.0
 40
2.0
  0
CIRCLE
  5
C65
330
1F
100
AcDbEntity
  8
0
100
AcDbCircle
 10
-189.5381
 20
1155.8373
 30
0.0
 40
2.0
  0
CIRCLE
  5
C66
330
1F
100
AcDbEntity
  8
0
100
AcDbCircle
 10
-189.5381
 20
1160.8361
 30
0.0
 40
2.0
  0
CIRCLE
  5
C67
330
1F
100
AcDbEntity
  8
0
100
AcDbCircle
 10
-189.5381
 20
1165.8349
 30
0.0
 40
2.0
  0
CIRCLE
  5
C68
330
1F
100
AcDbEntity
  8
0
100
AcDbCircle
 10
-189.5381
 20
1170.8337
 30
0.0
 40
2.0
  0
CIRCLE
  5
C69
330
1F
100
AcDbEntity
  8
0
100
AcDbCircle
 10
-189.5381
 20
1175.8325
 30
0.0
 40
2.0
  0
CIRCLE
  5
C6A
330
1F
100
AcDbEntity
  8
0
100
AcDbCircle
 10
-189.5381
 20
1180.8313
 30
0.0
 40
2.0
  0
CIRCLE
  5
C6B
330
1F
100
AcDbEntity
  8
0
100
AcDbCircle
 10
-189.5381
 20
1185.8301
 30
0.0
 40
2.0
  0
CIRCLE
  5
C6C
330
1F
100
AcDbEntity
  8
0
100
AcDbCircle
 10
-189.5381
 20
1190.8289
 30
0.0
 40
2.0
  0
CIRCLE
  5
C6D
330
1F
100
AcDbEntity
  8
0
100
AcDbCircle
 10
-189.5381
 20
1195.8277
 30
0.0
 40
2.0
  0
CIRCLE
  5
C6E
330
1F
100
AcDbEntity
  8
0
100
AcDbCircle
 10
-189.5381
 20
1200.8265
 30
0.0
 40
2.0
  0
CIRCLE
  5
C6F
330
1F
100
AcDbEntity
  8
0
100
AcDbCircle
 10
-189.5381
 20
1205.8253
 30
0.0
 40
2.0
  0
CIRCLE
  5
C70
330
1F
100
AcDbEntity
  8
0
100
AcDbCircle
 10
-189.5381
 20
1210.8241
 30
0.0
 40
2.0
  0
CIRCLE
  5
C71
330
1F
100
AcDbEntity
  8
0
100
AcDbCircle
 10
-189.5381
 20
1215.8229
 30
0.0
 40
2.0
  0
CIRCLE
  5
C72
330
1F
100
AcDbEntity
  8
0
100
AcDbCircle
 10
-189.5381
 20
1220.8217
 30
0.0
 40
2.0
  0
CIRCLE
  5
C73
330
1F
100
AcDbEntity
  8
0
100
AcDbCircle
 10
-189.5381
 20
1225.8205
 30
0.0
 40
2.0
  0
CIRCLE
  5
C74
330
1F
100
AcDbEntity
  8
0
100
AcDbCircle
 10
-189.5381
 20
1230.8193
 30
0.0
 40
2.0
  0
CIRCLE
  5
C75
330
1F
100
AcDbEntity
  8
0
100
AcDbCircle
 10
-189.5381
 20
1235.8181
 30
0.0
 40
2.0
  0
CIRCLE
  5
C76
330
1F
100
AcDbEntity
  8
0
100
AcDbCircle
 10
-189.5381
 20
1240.8169
 30
0.0
 40
2.0
  0
CIRCLE
  5
C77
330
1F
100
AcDbEntity
  8
0
100
AcDbCircle
 10
-189.5381
 20
1245.8157
 30
0.0
 40
2.0
  0
CIRCLE
  5
C78
330
1F
100
AcDbEntity
  8
0
100
AcDbCircle
 10
-189.5381
 20
1250.8146
 30
0.0
 40
2.0
  0
CIRCLE
  5
C79
330
1F
100
AcDbEntity
  8
0
100
AcDbCircle
 10
-189.5381
 20
1255.8134
 30
0.0
 40
2.0
  0
CIRCLE
  5
C7A
330
1F
100
AcDbEntity
  8
0
100
AcDbCircle
 10
-189.5381
 20
1260.8122
 30
0.0
 40
2.0
  0
CIRCLE
  5
C7B
330
1F
100
AcDbEntity
  8
0
100
AcDbCircle
 10
-189.5381
 20
1265.811
 30
0.0
 40
2.0
  0
CIRCLE
  5
C7C
330
1F
100
AcDbEntity
  8
0
100
AcDbCircle
 10
-189.5381
 20
1270.8098
 30
0.0
 40
2.0
  0
CIRCLE
  5
C7D
330
1F
100
AcDbEntity
  8
0
100
AcDbCircle
 10
-189.5381
 20
1275.8086
 30
0.0
 40
2.0
  0
CIRCLE
  5
C7E
330
1F
100
AcDbEntity
  8
0
100
AcDbCircle
 10
-189.5381
 20
1280.8074
 30
0.0
 40
2.0
  0
CIRCLE
  5
C7F
330
1F
100
AcDbEntity
  8
0
100
AcDbCircle
 10
-189.5381
 20
1285.8062
 30
0.0
 40
2.0
  0
CIRCLE
  5
C80
330
1F
100
AcDbEntity
  8
0
100
AcDbCircle
 10
-189.5381
 20
1290.805
 30
0.0
 40
2.0
  0
CIRCLE
  5
C81
330
1F
100
AcDbEntity
  8
0
100
AcDbCircle
 10
-189.5381
 20
1295.8038
 30
0.0
 40
2.0
  0
CIRCLE
  5
C82
330
1F
100
AcDbEntity
  8
0
100
AcDbCircle
 10
-189.5381
 20
1300.8026
 30
0.0
 40
2.0
  0
CIRCLE
  5
C83
330
1F
100
AcDbEntity
  8
0
100
AcDbCircle
 10
-189.5381
 20
1305.8014
 30
0.0
 40
2.0
  0
CIRCLE
  5
C84
330
1F
100
AcDbEntity
  8
0
100
AcDbCircle
 10
-189.5381
 20
1310.8002
 30
0.0
 40
2.0
  0
CIRCLE
  5
C85
330
1F
100
AcDbEntity
  8
0
100
AcDbCircle
 10
-189.5381
 20
1315.799
 30
0.0
 40
2.0
  0
CIRCLE
  5
C86
330
1F
100
AcDbEntity
  8
0
100
AcDbCircle
 10
-189.5381
 20
1320.7978
 30
0.0
 40
2.0
  0
CIRCLE
  5
C87
330
1F
100
AcDbEntity
  8
0
100
AcDbCircle
 10
-189.5381
 20
1325.7966
 30
0.0
 40
2.0
  0
CIRCLE
  5
C88
330
1F
100
AcDbEntity
  8
0
100
AcDbCircle
 10
-189.5381
 20
1330.7954
 30
0.0
 40
2.0
  0
CIRCLE
  5
C89
330
1F
100
AcDbEntity
  8
0
100
AcDbCircle
 10
-189.5381
 20
1335.7942
 30
0.0
 40
2.0
  0
CIRCLE
  5
C8A
330
1F
100
AcDbEntity
  8
0
100
AcDbCircle
 10
-189.5381
 20
1340.793
 30
0.0
 40
2.0
  0
CIRCLE
  5
C8B
330
1F
100
AcDbEntity
  8
0
100
AcDbCircle
 10
-189.5381
 20
1345.7919
 30
0.0
 40
2.0
  0
CIRCLE
  5
C8C
330
1F
100
AcDbEntity
  8
0
100
AcDbCircle
 10
-189.5381
 20
1350.7907
 30
0.0
 40
2.0
  0
CIRCLE
  5
C8D
330
1F
100
AcDbEntity
  8
0
100
AcDbCircle
 10
-189.5381
 20
1355.7895
 30
0.0
 40
2.0
  0
CIRCLE
  5
C8E
330
1F
100
AcDbEntity
  8
0
100
AcDbCircle
 10
-189.5381
 20
1360.7883
 30
0.0
 40
2.0
  0
CIRCLE
  5
C8F
330
1F
100
AcDbEntity
  8
0
100
AcDbCircle
 10
-189.5381
 20
1365.7871
 30
0.0
 40
2.0
  0
CIRCLE
  5
C90
330
1F
100
AcDbEntity
  8
0
100
AcDbCircle
 10
-189.5381
 20
1370.7859
 30
0.0
 40
2.0
  0
CIRCLE
  5
C91
330
1F
100
AcDbEntity
  8
0
100
AcDbCircle
 10
-189.5381
 20
1375.7847
 30
0.0
 40
2.0
  0
CIRCLE
  5
C92
330
1F
100
AcDbEntity
  8
0
100
AcDbCircle
 10
-189.5381
 20
1380.7835
 30
0.0
 40
2.0
  0
CIRCLE
  5
C93
330
1F
100
AcDbEntity
  8
0
100
AcDbCircle
 10
-189.5381
 20
1385.7823
 30
0.0
 40
2.0
  0
CIRCLE
  5
C94
330
1F
100
AcDbEntity
  8
0
100
AcDbCircle
 10
-189.5381
 20
1390.7811
 30
0.0
 40
2.0
  0
CIRCLE
  5
C95
330
1F
100
AcDbEntity
  8
0
100
AcDbCircle
 10
-189.5381
 20
1395.7799
 30
0.0
 40
2.0
  0
CIRCLE
  5
C96
330
1F
100
AcDbEntity
  8
0
100
AcDbCircle
 10
-189.5381
 20
1400.7787
 30
0.0
 40
2.0
  0
CIRCLE
  5
C97
330
1F
100
AcDbEntity
  8
0
100
AcDbCircle
 10
-189.5381
 20
1405.7775
 30
0.0
 40
2.0
  0
CIRCLE
  5
C98
330
1F
100
AcDbEntity
  8
0
100
AcDbCircle
 10
-189.5381
 20
1410.7763
 30
0.0
 40
2.0
  0
CIRCLE
  5
C99
330
1F
100
AcDbEntity
  8
0
100
AcDbCircle
 10
-189.5381
 20
1415.7751
 30
0.0
 40
2.0
  0
CIRCLE
  5
C9A
330
1F
100
AcDbEntity
  8
0
100
AcDbCircle
 10
-189.5381
 20
1420.7739
 30
0.0
 40
2.0
  0
CIRCLE
  5
C9B
330
1F
100
AcDbEntity
  8
0
100
AcDbCircle
 10
-189.5381
 20
1425.7727
 30
0.0
 40
2.0
  0
CIRCLE
  5
C9C
330
1F
100
AcDbEntity
  8
0
100
AcDbCircle
 10
-189.5381
 20
1430.7715
 30
0.0
 40
2.0
  0
CIRCLE
  5
C9D
330
1F
100
AcDbEntity
  8
0
100
AcDbCircle
 10
-189.5381
 20
1435.7703
 30
0.0
 40
2.0
  0
CIRCLE
  5
C9E
330
1F
100
AcDbEntity
  8
0
100
AcDbCircle
 10
-189.5381
 20
1440.7692
 30
0.0
 40
2.0
  0
CIRCLE
  5
C9F
330
1F
100
AcDbEntity
  8
0
100
AcDbCircle
 10
-189.5381
 20
1445.768
 30
0.0
 40
2.0
  0
CIRCLE
  5
CA0
330
1F
100
AcDbEntity
  8
0
100
AcDbCircle
 10
-189.5381
 20
1450.7668
 30
0.0
 40
2.0
  0
CIRCLE
  5
CA1
330
1F
100
AcDbEntity
  8
0
100
AcDbCircle
 10
-189.5381
 20
1455.7656
 30
0.0
 40
2.0
  0
CIRCLE
  5
CA2
330
1F
100
AcDbEntity
  8
0
100
AcDbCircle
 10
-189.5381
 20
1460.7644
 30
0.0
 40
2.0
  0
CIRCLE
  5
CA3
330
1F
100
AcDbEntity
  8
0
100
AcDbCircle
 10
-189.5381
 20
1465.7632
 30
0.0
 40
2.0
  0
CIRCLE
  5
CA4
330
1F
100
AcDbEntity
  8
0
100
AcDbCircle
 10
-189.5381
 20
1470.762
 30
0.0
 40
2.0
  0
CIRCLE
  5
CA5
330
1F
100
AcDbEntity
  8
0
100
AcDbCircle
 10
-189.5381
 20
1475.7608
 30
0.0
 40
2.0
  0
CIRCLE
  5
CA6
330
1F
100
AcDbEntity
  8
0
100
AcDbCircle
 10
-189.5381
 20
1480.7596
 30
0.0
 40
2.0
  0
CIRCLE
  5
CA7
330
1F
100
AcDbEntity
  8
0
100
AcDbCircle
 10
-189.5381
 20
1485.7584
 30
0.0
 40
2.0
  0
CIRCLE
  5
CA8
330
1F
100
AcDbEntity
  8
0
100
AcDbCircle
 10
-189.5381
 20
1490.7572
 30
0.0
 40
2.0
  0
CIRCLE
  5
CA9
330
1F
100
AcDbEntity
  8
0
100
AcDbCircle
 10
-189.5381
 20
1495.756
 30
0.0
 40
2.0
  0
CIRCLE
  5
CAA
330
1F
100
AcDbEntity
  8
0
100
AcDbCircle
 10
-189.5381
 20
1500.7548
 30
0.0
 40
2.0
  0
CIRCLE
  5
CAB
330
1F
100
AcDbEntity
  8
0
100
AcDbCircle
 10
-189.5381
 20
1505.7536
 30
0.0
 40
2.0
  0
CIRCLE
  5
CAC
330
1F
100
AcDbEntity
  8
0
100
AcDbCircle
 10
-189.5381
 20
1510.7524
 30
0.0
 40
2.0
  0
CIRCLE
  5
CAD
330
1F
100
AcDbEntity
  8
0
100
AcDbCircle
 10
-189.5381
 20
1515.7512
 30
0.0
 40
2.0
  0
CIRCLE
  5
CAE
330
1F
100
AcDbEntity
  8
0
100
AcDbCircle
 10
-189.5381
 20
1520.75
 30
0.0
 40
2.0
  0
CIRCLE
  5
CAF
330
1F
100
AcDbEntity
  8
0
100
AcDbCircle
 10
-189.5381
 20
1525.7488
 30
0.0
 40
2.0
  0
CIRCLE
  5
CB0
330
1F
100
AcDbEntity
  8
0
100
AcDbCircle
 10
-189.5381
 20
1530.7476
 30
0.0
 40
2.0
  0
CIRCLE
  5
CB1
330
1F
100
AcDbEntity
  8
0
100
AcDbCircle
 10
-189.5381
 20
1535.7465
 30
0.0
 40
2.0
  0
CIRCLE
  5
CB2
330
1F
100
AcDbEntity
  8
0
100
AcDbCircle
 10
-189.5381
 20
1540.7453
 30
0.0
 40
2.0
  0
CIRCLE
  5
CB3
330
1F
100
AcDbEntity
  8
0
100
AcDbCircle
 10
-189.5381
 20
1545.7441
 30
0.0
 40
2.0
  0
CIRCLE
  5
CB4
330
1F
100
AcDbEntity
  8
0
100
AcDbCircle
 10
-189.5381
 20
1550.7429
 30
0.0
 40
2.0
  0
CIRCLE
  5
CB5
330
1F
100
AcDbEntity
  8
0
100
AcDbCircle
 10
-189.5381
 20
1555.7417
 30
0.0
 40
2.0
  0
CIRCLE
  5
CB6
330
1F
100
AcDbEntity
  8
0
100
AcDbCircle
 10
-189.5381
 20
1560.7405
 30
0.0
 40
2.0
  0
CIRCLE
  5
CB7
330
1F
100
AcDbEntity
  8
0
100
AcDbCircle
 10
-189.5381
 20
1565.7393
 30
0.0
 40
2.0
  0
CIRCLE
  5
CB8
330
1F
100
AcDbEntity
  8
0
100
AcDbCircle
 10
-189.5381
 20
1570.7381
 30
0.0
 40
2.0
  0
CIRCLE
  5
CB9
330
1F
100
AcDbEntity
  8
0
100
AcDbCircle
 10
-189.5381
 20
1575.7369
 30
0.0
 40
2.0
  0
CIRCLE
  5
CBA
330
1F
100
AcDbEntity
  8
0
100
AcDbCircle
 10
-189.5381
 20
1580.7357
 30
0.0
 40
2.0
  0
CIRCLE
  5
CBB
330
1F
100
AcDbEntity
  8
0
100
AcDbCircle
 10
-189.5381
 20
1585.7345
 30
0.0
 40
2.0
  0
CIRCLE
  5
CBC
330
1F
100
AcDbEntity
  8
0
100
AcDbCircle
 10
-189.5381
 20
1590.7333
 30
0.0
 40
2.0
  0
CIRCLE
  5
CBD
330
1F
100
AcDbEntity
  8
0
100
AcDbCircle
 10
-189.5381
 20
1595.7321
 30
0.0
 40
2.0
  0
CIRCLE
  5
CBE
330
1F
100
AcDbEntity
  8
0
100
AcDbCircle
 10
-189.5381
 20
1600.7309
 30
0.0
 40
2.0
  0
CIRCLE
  5
CBF
330
1F
100
AcDbEntity
  8
0
100
AcDbCircle
 10
-189.5381
 20
1605.7297
 30
0.0
 40
2.0
  0
CIRCLE
  5
CC0
330
1F
100
AcDbEntity
  8
0
100
AcDbCircle
 10
-189.5381
 20
1610.7285
 30
0.0
 40
2.0
  0
CIRCLE
  5
CC1
330
1F
100
AcDbEntity
  8
0
100
AcDbCircle
 10
-189.5381
 20
1615.7273
 30
0.0
 40
2.0
  0
CIRCLE
  5
CC2
330
1F
100
AcDbEntity
  8
0
100
AcDbCircle
 10
-189.5381
 20
1620.7261
 30
0.0
 40
2.0
  0
CIRCLE
  5
CC3
330
1F
100
AcDbEntity
  8
0
100
AcDbCircle
 10
-189.5381
 20
1625.724899999999
 30
0.0
 40
2.0
  0
CIRCLE
  5
CC4
330
1F
100
AcDbEntity
  8
0
100
AcDbCircle
 10
-189.5381
 20
1630.7238
 30
0.0
 40
2.0
  0
CIRCLE
  5
CC5
330
1F
100
AcDbEntity
  8
0
100
AcDbCircle
 10
-189.5381
 20
1635.7226
 30
0.0
 40
2.0
  0
CIRCLE
  5
CC6
330
1F
100
AcDbEntity
  8
0
100
AcDbCircle
 10
-189.5381
 20
1640.7214
 30
0.0
 40
2.0
  0
CIRCLE
  5
CC7
330
1F
100
AcDbEntity
  8
0
100
AcDbCircle
 10
-189.5381
 20
1645.7202
 30
0.0
 40
2.0
  0
CIRCLE
  5
CC8
330
1F
100
AcDbEntity
  8
0
100
AcDbCircle
 10
-189.5381
 20
1650.719
 30
0.0
 40
2.0
  0
CIRCLE
  5
CC9
330
1F
100
AcDbEntity
  8
0
100
AcDbCircle
 10
-189.5381
 20
1655.7178
 30
0.0
 40
2.0
  0
CIRCLE
  5
CCA
330
1F
100
AcDbEntity
  8
0
100
AcDbCircle
 10
-189.5381
 20
1660.7166
 30
0.0
 40
2.0
  0
CIRCLE
  5
CCB
330
1F
100
AcDbEntity
  8
0
100
AcDbCircle
 10
-189.5381
 20
1665.7154
 30
0.0
 40
2.0
  0
CIRCLE
  5
CCC
330
1F
100
AcDbEntity
  8
0
100
AcDbCircle
 10
-189.5381
 20
1670.7142
 30
0.0
 40
2.0
  0
CIRCLE
  5
CCD
330
1F
100
AcDbEntity
  8
0
100
AcDbCircle
 10
-189.5381
 20
1675.713
 30
0.0
 40
2.0
  0
CIRCLE
  5
CCE
330
1F
100
AcDbEntity
  8
0
100
AcDbCircle
 10
-189.5381
 20
1680.7118
 30
0.0
 40
2.0
  0
CIRCLE
  5
CCF
330
1F
100
AcDbEntity
  8
0
100
AcDbCircle
 10
-189.5381
 20
1685.7106
 30
0.0
 40
2.0
  0
CIRCLE
  5
CD0
330
1F
100
AcDbEntity
  8
0
100
AcDbCircle
 10
-189.5381
 20
1690.7094
 30
0.0
 40
2.0
  0
CIRCLE
  5
CD1
330
1F
100
AcDbEntity
  8
0
100
AcDbCircle
 10
-189.5381
 20
1695.7082
 30
0.0
 40
2.0
  0
CIRCLE
  5
CD2
330
1F
100
AcDbEntity
  8
0
100
AcDbCircle
 10
-189.5381
 20
1700.707
 30
0.0
 40
2.0
  0
CIRCLE
  5
CD3
330
1F
100
AcDbEntity
  8
0
100
AcDbCircle
 10
-189.5381
 20
1705.7058
 30
0.0
 40
2.0
  0
CIRCLE
  5
CD4
330
1F
100
AcDbEntity
  8
0
100
AcDbCircle
 10
-189.5381
 20
1710.7046
 30
0.0
 40
2.0
  0
CIRCLE
  5
CD5
330
1F
100
AcDbEntity
  8
0
100
AcDbCircle
 10
-189.5381
 20
1715.7034
 30
0.0
 40
2.0
  0
CIRCLE
  5
CD6
330
1F
100
AcDbEntity
  8
0
100
AcDbCircle
 10
-189.5381
 20
1720.7022
 30
0.0
 40
2.0
  0
CIRCLE
  5
CD7
330
1F
100
AcDbEntity
  8
0
100
AcDbCircle
 10
-189.5381
 20
1725.7011
 30
0.0
 40
2.0
  0
CIRCLE
  5
CD8
330
1F
100
AcDbEntity
  8
0
100
AcDbCircle
 10
-189.5381
 20
1730.6999
 30
0.0
 40
2.0
  0
CIRCLE
  5
CD9
330
1F
100
AcDbEntity
  8
0
100
AcDbCircle
 10
-189.5381
 20
1735.6987
 30
0.0
 40
2.0
  0
CIRCLE
  5
CDA
330
1F
100
AcDbEntity
  8
0
100
AcDbCircle
 10
-189.5381
 20
1740.6975
 30
0.0
 40
2.0
  0
CIRCLE
  5
CDB
330
1F
100
AcDbEntity
  8
0
100
AcDbCircle
 10
-189.5381
 20
1745.6963
 30
0.0
 40
2.0
  0
CIRCLE
  5
CDC
330
1F
100
AcDbEntity
  8
0
100
AcDbCircle
 10
-189.5381
 20
1750.6951
 30
0.0
 40
2.0
  0
CIRCLE
  5
CDD
330
1F
100
AcDbEntity
  8
0
100
AcDbCircle
 10
-189.5381
 20
1755.6939
 30
0.0
 40
2.0
  0
CIRCLE
  5
CDE
330
1F
100
AcDbEntity
  8
0
100
AcDbCircle
 10
-189.5381
 20
1760.6927
 30
0.0
 40
2.0
  0
CIRCLE
  5
CDF
330
1F
100
AcDbEntity
  8
0
100
AcDbCircle
 10
-189.5381
 20
1765.6915
 30
0.0
 40
2.0
  0
CIRCLE
  5
CE0
330
1F
100
AcDbEntity
  8
0
100
AcDbCircle
 10
-189.5381
 20
1770.6903
 30
0.0
 40
2.0
  0
CIRCLE
  5
CE1
330
1F
100
AcDbEntity
  8
0
100
AcDbCircle
 10
-189.5381
 20
1775.6891
 30
0.0
 40
2.0
  0
CIRCLE
  5
CE2
330
1F
100
AcDbEntity
  8
0
100
AcDbCircle
 10
-189.5381
 20
1780.6879
 30
0.0
 40
2.0
  0
CIRCLE
  5
CE3
330
1F
100
AcDbEntity
  8
0
100
AcDbCircle
 10
-189.5381
 20
1785.6867
 30
0.0
 40
2.0
  0
CIRCLE
  5
CE4
330
1F
100
AcDbEntity
  8
0
100
AcDbCircle
 10
-189.5381
 20
1790.6855
 30
0.0
 40
2.0
  0
CIRCLE
  5
CE5
330
1F
100
AcDbEntity
  8
0
100
AcDbCircle
 10
-189.5381
 20
1795.6843
 30
0.0
 40
2.0
  0
CIRCLE
  5
CE6
330
1F
100
AcDbEntity
  8
0
100
AcDbCircle
 10
-189.5381
 20
1800.6831
 30
0.0
 40
2.0
  0
CIRCLE
  5
CE7
330
1F
100
AcDbEntity
  8
0
100
AcDbCircle
 10
-189.5381
 20
1805.6819
 30
0.0
 40
2.0
  0
CIRCLE
  5
CE8
330
1F
100
AcDbEntity
  8
0
100
AcDbCircle
 10
-189.5381
 20
1810.6807
 30
0.0
 40
2.0
  0
CIRCLE
  5
CE9
330
1F
100
AcDbEntity
  8
0
100
AcDbCircle
 10
-189.5381
 20
1815.6795
 30
0.0
 40
2.0
  0
CIRCLE
  5
CEA
330
1F
100
AcDbEntity
  8
0
100
AcDbCircle
 10
-189.5381
 20
1820.6784
 30
0.0
 40
2.0
  0
CIRCLE
  5
CEB
330
1F
100
AcDbEntity
  8
0
100
AcDbCircle
 10
-189.5381
 20
1825.6772
 30
0.0
 40
2.0
  0
CIRCLE
  5
CEC
330
1F
100
AcDbEntity
  8
0
100
AcDbCircle
 10
-189.5381
 20
1830.676
 30
0.0
 40
2.0
  0
CIRCLE
  5
CED
330
1F
100
AcDbEntity
  8
0
100
AcDbCircle
 10
-189.5381
 20
1835.6748
 30
0.0
 40
2.0
  0
CIRCLE
  5
CEE
330
1F
100
AcDbEntity
  8
0
100
AcDbCircle
 10
-189.5381
 20
1840.6736
 30
0.0
 40
2.0
  0
CIRCLE
  5
CEF
330
1F
100
AcDbEntity
  8
0
100
AcDbCircle
 10
-189.5381
 20
1845.6724
 30
0.0
 40
2.0
  0
CIRCLE
  5
CF0
330
1F
100
AcDbEntity
  8
0
100
AcDbCircle
 10
-189.5381
 20
1850.6712
 30
0.0
 40
2.0
  0
CIRCLE
  5
CF1
330
1F
100
AcDbEntity
  8
0
100
AcDbCircle
 10
-189.5381
 20
1855.67
 30
0.0
 40
2.0
  0
CIRCLE
  5
CF2
330
1F
100
AcDbEntity
  8
0
100
AcDbCircle
 10
-189.5381
 20
1860.668799999999
 30
0.0
 40
1.999999999999771
  0
CIRCLE
  5
CF3
330
1F
100
AcDbEntity
  8
0
100
AcDbCircle
 10
-189.5381
 20
-2323.3414
 30
0.0
 40
1.994600000000111
  0
CIRCLE
  5
CF4
330
1F
100
AcDbEntity
  8
0
100
AcDbCircle
 10
-189.5381
 20
-2328.3504
 30
0.0
 40
1.989199999999988
  0
CIRCLE
  5
CF5
330
1F
100
AcDbEntity
  8
0
100
AcDbCircle
 10
-189.5381
 20
-2333.3594
 30
0.0
 40
1.98379999999998
  0
CIRCLE
  5
CF6
330
1F
100
AcDbEntity
  8
0
100
AcDbCircle
 10
-189.5381
 20
-2338.3684
 30
0.0
 40
1.978399999999985
  0
CIRCLE
  5
CF7
330
1F
100
AcDbEntity
  8
0
100
AcDbCircle
 10
-189.5381
 20
-2343.37735
 30
0.0
 40
1.973024999999914
  0
CIRCLE
  5
CF8
330
1F
100
AcDbEntity
  8
0
100
AcDbCircle
 10
-189.5381
 20
-2348.38635
 30
0.0
 40
1.967624999999904
  0
CIRCLE
  5
CF9
330
1F
100
AcDbEntity
  8
0
100
AcDbCircle
 10
-189.5381
 20
-2353.39535
 30
0.0
 40
1.96222499999991
  0
CIRCLE
  5
CFA
330
1F
100
AcDbEntity
  8
0
100
AcDbCircle
 10
-189.5381
 20
-2358.40435
 30
0.0
 40
1.956824999999901
  0
CIRCLE
  5
CFB
330
1F
100
AcDbEntity
  8
0
100
AcDbCircle
 10
-189.5381
 20
-2363.41335
 30
0.0
 40
1.951425000000006
  0
CIRCLE
  5
CFC
330
1F
100
AcDbEntity
  8
0
100
AcDbCircle
 10
-189.5381
 20
-2368.42235
 30
0.0
 40
1.946025000000011
  0
CIRCLE
  5
CFD
330
1F
100
AcDbEntity
  8
0
100
AcDbCircle
 10
-189.5381
 20
-2373.43135
 30
0.0
 40
1.940625000000116
  0
CIRCLE
  5
CFE
330
1F
100
AcDbEntity
  8
0
100
AcDbCircle
 10
-189.5381
 20
-2378.44035
 30
0.0
 40
1.935274999999996
  0
CIRCLE
  5
CFF
330
1F
100
AcDbEntity
  8
0
100
AcDbCircle
 10
-189.5381
 20
-2383.44935
 30
0.0
 40
1.929874999999988
  0
CIRCLE
  5
D00
330
1F
100
AcDbEntity
  8
0
100
AcDbCircle
 10
-189.5381
 20
-2388.4583
 30
0.0
 40
1.924499999999929
  0
CIRCLE
  5
D01
330
1F
100
AcDbEntity
  8
0
100
AcDbCircle
 10
-189.5381
 20
-2393.467300000001
 30
0.0
 40
1.919099999999914
  0
CIRCLE
  5
D02
330
1F
100
AcDbEntity
  8
0
100
AcDbCircle
 10
-189.5381
 20
-2398.4763
 30
0.0
 40
1.913699999999685
  0
CIRCLE
  5
D03
330
1F
100
AcDbEntity
  8
0
100
AcDbCircle
 10
-189.5381
 20
-2403.4853
 30
0.0
 40
1.908299999999918
  0
CIRCLE
  5
D04
330
1F
100
AcDbEntity
  8
0
100
AcDbCircle
 10
-189.5380999999999
 20
-2408.49425
 30
0.0
 40
1.902875000000064
  0
CIRCLE
  5
D05
330
1F
100
AcDbEntity
  8
0
100
AcDbCircle
 10
-189.5381
 20
-2413.503250000001
 30
0.0
 40
1.897475000000304
  0
CIRCLE
  5
D06
330
1F
100
AcDbEntity
  8
0
100
AcDbCircle
 10
-189.5381
 20
-2418.51225
 30
0.0
 40
1.892075000000096
  0
CIRCLE
  5
D07
330
1F
100
AcDbEntity
  8
0
100
AcDbCircle
 10
-189.5381
 20
-2423.52125
 30
0.0
 40
1.886675000000073
  0
CIRCLE
  5
D08
330
1F
100
AcDbEntity
  8
0
100
AcDbCircle
 10
-189.5381
 20
-2428.5302
 30
0.0
 40
1.881300000000003
  0
CIRCLE
  5
D09
330
1F
100
AcDbEntity
  8
0
100
AcDbCircle
 10
-189.5381
 20
-2433.5392
 30
0.0
 40
1.8759
  0
CIRCLE
  5
D0A
330
1F
100
AcDbEntity
  8
0
100
AcDbCircle
 10
-189.5381
 20
-2438.548200000001
 30
0.0
 40
1.870499999999772
  0
CIRCLE
  5
D0B
330
1F
100
AcDbEntity
  8
0
100
AcDbCircle
 10
-189.5381
 20
-2443.557200000001
 30
0.0
 40
1.865100000000218
  0
CIRCLE
  5
D0C
330
1F
100
AcDbEntity
  8
0
100
AcDbCircle
 10
-189.5381
 20
-2448.5662
 30
0.0
 40
1.859700000000096
  0
CIRCLE
  5
D0D
330
1F
100
AcDbEntity
  8
0
100
AcDbCircle
 10
-189.5381
 20
-2453.5752
 30
0.0
 40
1.854300000000328
  0
CIRCLE
  5
D0E
330
1F
100
AcDbEntity
  8
0
100
AcDbCircle
 10
-189.5381
 20
-2458.584200000001
 30
0.0
 40
1.848900000000091
  0
CIRCLE
  5
D0F
330
1F
100
AcDbEntity
  8
0
100
AcDbCircle
 10
-189.5381
 20
-2463.5932
 30
0.0
 40
1.843500000000311
  0
CIRCLE
  5
D10
330
1F
100
AcDbEntity
  8
0
100
AcDbCircle
 10
-189.5381
 20
-2468.602200000001
 30
0.0
 40
1.838100000000089
  0
CIRCLE
  5
D11
330
1F
100
AcDbEntity
  8
0
100
AcDbCircle
 10
-189.5381
 20
-2473.61115
 30
0.0
 40
1.832725000000016
  0
CIRCLE
  5
D12
330
1F
100
AcDbEntity
  8
0
100
AcDbCircle
 10
-189.5381
 20
-2478.620150000001
 30
0.0
 40
1.827325000000008
  0
CIRCLE
  5
D13
330
1F
100
AcDbEntity
  8
0
100
AcDbCircle
 10
-189.5381
 20
-2483.629150000001
 30
0.0
 40
1.821925000000241
  0
CIRCLE
  5
D14
330
1F
100
AcDbEntity
  8
0
100
AcDbCircle
 10
-189.5381
 20
-2488.638150000002
 30
0.0
 40
1.816524999999664
  0
CIRCLE
  5
D15
330
1F
100
AcDbEntity
  8
0
100
AcDbCircle
 10
-189.5381
 20
-2493.647150000001
 30
0.0
 40
1.811174999999771
  0
CIRCLE
  5
D16
330
1F
100
AcDbEntity
  8
0
100
AcDbCircle
 10
-189.5381
 20
-2498.65615
 30
0.0
 40
1.805774999999989
  0
CIRCLE
  5
D17
330
1F
100
AcDbEntity
  8
0
100
AcDbCircle
 10
-189.5381
 20
-2503.66515
 30
0.0
 40
1.800374999999995
  0
CIRCLE
  5
D18
330
1F
100
AcDbEntity
  8
0
100
AcDbCircle
 10
-189.5381
 20
-2508.67415
 30
0.0
 40
1.794974999999985
  0
CIRCLE
  5
D19
330
1F
100
AcDbEntity
  8
0
100
AcDbCircle
 10
-189.5381
 20
-2513.68315
 30
0.0
 40
1.789574999999976
  0
CIRCLE
  5
D1A
330
1F
100
AcDbEntity
  8
0
100
AcDbCircle
 10
-189.5381
 20
-2518.6921
 30
0.0
 40
1.784199999999919
  0
CIRCLE
  5
D1B
330
1F
100
AcDbEntity
  8
0
100
AcDbCircle
 10
-189.5381
 20
-2523.7011
 30
0.0
 40
1.77879999999991
  0
CIRCLE
  5
D1C
330
1F
100
AcDbEntity
  8
0
100
AcDbCircle
 10
-189.5381
 20
-2528.7101
 30
0.0
 40
1.773399999999901
  0
CIRCLE
  5
D1D
330
1F
100
AcDbEntity
  8
0
100
AcDbCircle
 10
-189.5381
 20
-2533.719100000001
 30
0.0
 40
1.767999999999665
  0
CIRCLE
  5
D1E
330
1F
100
AcDbEntity
  8
0
100
AcDbCircle
 10
-189.5381
 20
-2538.7281
 30
0.0
 40
1.762600000000013
  0
CIRCLE
  5
D1F
330
1F
100
AcDbEntity
  8
0
100
AcDbCircle
 10
-189.5381
 20
-2543.7371
 30
0.0
 40
1.757200000000004
  0
CIRCLE
  5
D20
330
1F
100
AcDbEntity
  8
0
100
AcDbCircle
 10
-189.5381
 20
-2548.7461
 30
0.0
 40
1.751799999999995
  0
CIRCLE
  5
D21
330
1F
100
AcDbEntity
  8
0
100
AcDbCircle
 10
-189.5381
 20
-2553.7551
 30
0.0
 40
1.7464
  0
CIRCLE
  5
D22
330
1F
100
AcDbEntity
  8
0
100
AcDbCircle
 10
-189.5381
 20
-2558.764050000001
 30
0.0
 40
1.741025000000043
  0
CIRCLE
  5
D23
330
1F
100
AcDbEntity
  8
0
100
AcDbCircle
 10
-189.5381
 20
-2563.77305
 30
0.0
 40
1.735624999999919
  0
CIRCLE
  5
D24
330
1F
100
AcDbEntity
  8
0
100
AcDbCircle
 10
-189.5381
 20
-2568.78205
 30
0.0
 40
1.730224999999939
  0
CIRCLE
  5
D25
330
1F
100
AcDbEntity
  8
0
100
AcDbCircle
 10
-189.5381
 20
-2573.79105
 30
0.0
 40
1.724824999999916
  0
CIRCLE
  5
D26
330
1F
100
AcDbEntity
  8
0
100
AcDbCircle
 10
-189.5381
 20
-2578.80005
 30
0.0
 40
1.719425000000021
  0
CIRCLE
  5
D27
330
1F
100
AcDbEntity
  8
0
100
AcDbCircle
 10
-189.5381
 20
-2583.809
 30
0.0
 40
1.713999999999976
  0
CIRCLE
  5
D28
330
1F
100
AcDbEntity
  8
0
100
AcDbCircle
 10
-189.5381
 20
-2588.818
 30
0.0
 40
1.708600000000081
  0
CIRCLE
  5
D29
330
1F
100
AcDbEntity
  8
0
100
AcDbCircle
 10
-189.5381
 20
-2593.827
 30
0.0
 40
1.7032000000003
  0
CIRCLE
  5
D2A
330
1F
100
AcDbEntity
  8
0
100
AcDbCircle
 10
-189.5381
 20
-2598.836
 30
0.0
 40
1.697800000000064
  0
CIRCLE
  5
D2B
330
1F
100
AcDbEntity
  8
0
100
AcDbCircle
 10
-189.5381
 20
-2603.84495
 30
0.0
 40
1.692425000000006
  0
CIRCLE
  5
D2C
330
1F
100
AcDbEntity
  8
0
100
AcDbCircle
 10
-189.5381
 20
-2608.853950000001
 30
0.0
 40
1.687074999999772
  0
CIRCLE
  5
D2D
330
1F
100
AcDbEntity
  8
0
100
AcDbCircle
 10
-189.5381
 20
-2613.862950000001
 30
0.0
 40
1.681674999999991
  0
CIRCLE
  5
D2E
330
1F
100
AcDbEntity
  8
0
100
AcDbCircle
 10
-189.5381
 20
-2618.87195
 30
0.0
 40
1.676274999999995
  0
CIRCLE
  5
D2F
330
1F
100
AcDbEntity
  8
0
100
AcDbCircle
 10
-189.5381
 20
-2623.88095
 30
0.0
 40
1.6708750000001
  0
CIRCLE
  5
D30
330
1F
100
AcDbEntity
  8
0
100
AcDbCircle
 10
-189.5381
 20
-2628.88995
 30
0.0
 40
1.665475000000093
  0
CIRCLE
  5
D31
330
1F
100
AcDbEntity
  8
0
100
AcDbCircle
 10
-189.5381
 20
-2633.898950000001
 30
0.0
 40
1.660075000000324
  0
CIRCLE
  5
D32
330
1F
100
AcDbEntity
  8
0
100
AcDbCircle
 10
-189.5381
 20
-2638.90795
 30
0.0
 40
1.654675000000089
  0
CIRCLE
  5
D33
330
1F
100
AcDbEntity
  8
0
100
AcDbCircle
 10
-189.5381
 20
-2643.916950000001
 30
0.0
 40
1.649275000000308
  0
CIRCLE
  5
D34
330
1F
100
AcDbEntity
  8
0
100
AcDbCircle
 10
-189.5381
 20
-2648.925900000001
 30
0.0
 40
1.643899999999788
  0
CIRCLE
  5
D35
330
1F
100
AcDbEntity
  8
0
100
AcDbCircle
 10
-189.5381
 20
-2653.9349
 30
0.0
 40
1.638500000000014
  0
CIRCLE
  5
D36
330
1F
100
AcDbEntity
  8
0
100
AcDbCircle
 10
-189.5381
 20
-2658.943900000001
 30
0.0
 40
1.633100000000004
  0
CIRCLE
  5
D37
330
1F
100
AcDbEntity
  8
0
100
AcDbCircle
 10
-189.5381
 20
-2663.9529
 30
0.0
 40
1.627699999999656
  0
CIRCLE
  5
D38
330
1F
100
AcDbEntity
  8
0
100
AcDbCircle
 10
-189.5381
 20
-2668.9619
 30
0.0
 40
1.622300000000002
  0
CIRCLE
  5
D39
330
1F
100
AcDbEntity
  8
0
100
AcDbCircle
 10
-189.5381
 20
-2673.9709
 30
0.0
 40
1.616899999999879
  0
CIRCLE
  5
D3A
330
1F
100
AcDbEntity
  8
0
100
AcDbCircle
 10
-189.5381
 20
-2678.9799
 30
0.0
 40
1.611499999999971
  0
CIRCLE
  5
D3B
330
1F
100
AcDbEntity
  8
0
100
AcDbCircle
 10
-189.5381
 20
-2683.9889
 30
0.0
 40
1.606099999999982
  0
CIRCLE
  5
D3C
330
1F
100
AcDbEntity
  8
0
100
AcDbCircle
 10
-189.5381
 20
-2688.99785
 30
0.0
 40
1.600724999999918
  0
CIRCLE
  5
D3D
330
1F
100
AcDbEntity
  8
0
100
AcDbCircle
 10
-189.5381
 20
-2694.00685
 30
0.0
 40
1.595324999999909
  0
CIRCLE
  5
D3E
330
1F
100
AcDbEntity
  8
0
100
AcDbCircle
 10
-189.5381
 20
-2699.015850000001
 30
0.0
 40
1.589924999999674
  0
CIRCLE
  5
D3F
330
1F
100
AcDbEntity
  8
0
100
AcDbCircle
 10
-189.5381
 20
-2704.024850000001
 30
0.0
 40
1.584524999999679
  0
CIRCLE
  5
D40
330
1F
100
AcDbEntity
  8
0
100
AcDbCircle
 10
-189.5381
 20
-2709.03385
 30
0.0
 40
1.57912500000001
  0
CIRCLE
  5
D41
330
1F
100
AcDbEntity
  8
0
100
AcDbCircle
 10
-189.5381
 20
-2714.04285
 30
0.0
 40
1.573725000000003
  0
CIRCLE
  5
D42
330
1F
100
AcDbEntity
  8
0
100
AcDbCircle
 10
-189.5381
 20
-2719.05185
 30
0.0
 40
1.568325000000007
  0
CIRCLE
  5
D43
330
1F
100
AcDbEntity
  8
0
100
AcDbCircle
 10
-189.5381
 20
-2724.06085
 30
0.0
 40
1.562924999999999
  0
CIRCLE
  5
D44
330
1F
100
AcDbEntity
  8
0
100
AcDbCircle
 10
-189.5381
 20
-2729.06985
 30
0.0
 40
1.557574999999991
  0
CIRCLE
  5
D45
330
1F
100
AcDbEntity
  8
0
100
AcDbCircle
 10
-189.5381
 20
-2734.078800000001
 30
0.0
 40
1.552199999999935
  0
CIRCLE
  5
D46
330
1F
100
AcDbEntity
  8
0
100
AcDbCircle
 10
-189.5381
 20
-2739.0878
 30
0.0
 40
1.546800000000039
  0
CIRCLE
  5
D47
330
1F
100
AcDbEntity
  8
0
100
AcDbCircle
 10
-189.5381
 20
-2744.0968
 30
0.0
 40
1.541399999999916
  0
CIRCLE
  5
D48
330
1F
100
AcDbEntity
  8
0
100
AcDbCircle
 10
-189.5381
 20
-2749.105800000001
 30
0.0
 40
1.535999999999893
  0
CIRCLE
  5
D49
330
1F
100
AcDbEntity
  8
0
100
AcDbCircle
 10
-189.5381
 20
-2754.11475
 30
0.0
 40
1.53057500000009
  0
CIRCLE
  5
D4A
330
1F
100
AcDbEntity
  8
0
100
AcDbCircle
 10
-189.5381
 20
-2759.12375
 30
0.0
 40
1.525175000000081
  0
CIRCLE
  5
D4B
330
1F
100
AcDbEntity
  8
0
100
AcDbCircle
 10
-189.5381
 20
-2764.13275
 30
0.0
 40
1.519775000000073
  0
CIRCLE
  5
D4C
330
1F
100
AcDbEntity
  8
0
100
AcDbCircle
 10
-189.5381
 20
-2769.14175
 30
0.0
 40
1.514375000000079
  0
CIRCLE
  5
D4D
330
1F
100
AcDbEntity
  8
0
100
AcDbCircle
 10
-189.5381
 20
-2774.15075
 30
0.0
 40
1.50897500000007
  0
CIRCLE
  5
D4E
330
1F
100
AcDbEntity
  8
0
100
AcDbCircle
 10
-189.5381
 20
-2779.159700000001
 30
0.0
 40
1.503599999999997
  0
CIRCLE
  5
D4F
330
1F
100
AcDbEntity
  8
0
100
AcDbCircle
 10
-189.5381
 20
-2784.168700000001
 30
0.0
 40
1.49820000000023
  0
CIRCLE
  5
D50
330
1F
100
AcDbEntity
  8
0
100
AcDbCircle
 10
-189.5381
 20
-2789.1777
 30
0.0
 40
1.492799999999995
  0
CIRCLE
  5
D51
330
1F
100
AcDbEntity
  8
0
100
AcDbCircle
 10
-189.5381
 20
-2794.186700000001
 30
0.0
 40
1.487399999999758
  0
CIRCLE
  5
D52
330
1F
100
AcDbEntity
  8
0
100
AcDbCircle
 10
-189.5381
 20
-2799.1957
 30
0.0
 40
1.482000000000332
  0
CIRCLE
  5
D53
330
1F
100
AcDbEntity
  8
0
100
AcDbCircle
 10
-189.5381
 20
-2804.204700000001
 30
0.0
 40
1.476600000000096
  0
CIRCLE
  5
D54
330
1F
100
AcDbEntity
  8
0
100
AcDbCircle
 10
-189.5381
 20
-2809.213700000001
 30
0.0
 40
1.471200000000088
  0
CIRCLE
  5
D55
330
1F
100
AcDbEntity
  8
0
100
AcDbCircle
 10
-189.5381
 20
-2814.2227
 30
0.0
 40
1.465800000000078
  0
CIRCLE
  5
D56
330
1F
100
AcDbEntity
  8
0
100
AcDbCircle
 10
-189.5381
 20
-2819.231650000001
 30
0.0
 40
1.460424999999793
  0
CIRCLE
  5
D57
330
1F
100
AcDbEntity
  8
0
100
AcDbCircle
 10
-189.5381
 20
-2824.240650000001
 30
0.0
 40
1.455025000000239
  0
CIRCLE
  5
D58
330
1F
100
AcDbEntity
  8
0
100
AcDbCircle
 10
-189.5381
 20
-2829.24965
 30
0.0
 40
1.449625000000004
  0
CIRCLE
  5
D59
330
1F
100
AcDbEntity
  8
0
100
AcDbCircle
 10
-189.5381
 20
-2834.258650000001
 30
0.0
 40
1.444225000000237
  0
CIRCLE
  5
D5A
330
1F
100
AcDbEntity
  8
0
100
AcDbCircle
 10
-189.5381
 20
-2839.26765
 30
0.0
 40
1.438825
  0
CIRCLE
  5
D5B
330
1F
100
AcDbEntity
  8
0
100
AcDbCircle
 10
-189.5381
 20
-2844.27665
 30
0.0
 40
1.433474999999994
  0
CIRCLE
  5
D5C
330
1F
100
AcDbEntity
  8
0
100
AcDbCircle
 10
-189.5381
 20
-2849.28565
 30
0.0
 40
1.428074999999985
  0
CIRCLE
  5
D5D
330
1F
100
AcDbEntity
  8
0
100
AcDbCircle
 10
-189.5381
 20
-2854.294650000002
 30
0.0
 40
1.422674999999649
  0
CIRCLE
  5
D5E
330
1F
100
AcDbEntity
  8
0
100
AcDbCircle
 10
-189.5381
 20
-2859.30365
 30
0.0
 40
1.417274999999981
  0
CIRCLE
  5
D5F
330
1F
100
AcDbEntity
  8
0
100
AcDbCircle
 10
-189.5381
 20
-2864.3126
 30
0.0
 40
1.41189999999991
  0
CIRCLE
  5
D60
330
1F
100
AcDbEntity
  8
0
100
AcDbCircle
 10
-189.5381
 20
-2869.321600000001
 30
0.0
 40
1.406499999999915
  0
CIRCLE
  5
D61
330
1F
100
AcDbEntity
  8
0
100
AcDbCircle
 10
-189.5381
 20
-2874.3306
 30
0.0
 40
1.401099999999678
  0
CIRCLE
  5
D62
330
1F
100
AcDbEntity
  8
0
100
AcDbCircle
 10
-189.5381
 20
-2879.3396
 30
0.0
 40
1.395699999999898
  0
CIRCLE
  5
D63
330
1F
100
AcDbEntity
  8
0
100
AcDbCircle
 10
-189.5381
 20
-2884.3486
 30
0.0
 40
1.390300000000016
  0
CIRCLE
  5
D64
330
1F
100
AcDbEntity
  8
0
100
AcDbCircle
 10
-189.5381
 20
-2889.3576
 30
0.0
 40
1.384900000000008
  0
CIRCLE
  5
D65
330
1F
100
AcDbEntity
  8
0
100
AcDbCircle
 10
-189.5381
 20
-2894.3666
 30
0.0
 40
1.379499999999999
  0
CIRCLE
  5
D66
330
1F
100
AcDbEntity
  8
0
100
AcDbCircle
 10
-189.5381
 20
-2899.3756
 30
0.0
 40
1.374099999999997
  0
CIRCLE
  5
D67
330
1F
100
AcDbEntity
  8
0
100
AcDbCircle
 10
-189.5381
 20
-2904.3846
 30
0.0
 40
1.368699999999995
  0
CIRCLE
  5
D68
330
1F
100
AcDbEntity
  8
0
100
AcDbCircle
 10
-189.5381
 20
-2909.393550000001
 30
0.0
 40
1.363324999999696
  0
CIRCLE
  5
D69
330
1F
100
AcDbEntity
  8
0
100
AcDbCircle
 10
-189.5381
 20
-2914.40255
 30
0.0
 40
1.357924999999915
  0
CIRCLE
  5
D6A
330
1F
100
AcDbEntity
  8
0
100
AcDbCircle
 10
-189.5381
 20
-2919.41155
 30
0.0
 40
1.35252499999992
  0
CIRCLE
  5
D6B
330
1F
100
AcDbEntity
  8
0
100
AcDbCircle
 10
-189.5380999999999
 20
-2924.42055
 30
0.0
 40
1.347124999999934
  0
CIRCLE
  5
D6C
330
1F
100
AcDbEntity
  8
0
100
AcDbCircle
 10
-189.5381
 20
-2929.4295
 30
0.0
 40
1.341700000000081
  0
CIRCLE
  5
D6D
330
1F
100
AcDbEntity
  8
0
100
AcDbCircle
 10
-189.5381
 20
-2934.4385
 30
0.0
 40
1.336300000000085
  0
CIRCLE
  5
D6E
330
1F
100
AcDbEntity
  8
0
100
AcDbCircle
 10
-189.5381
 20
-2939.4475
 30
0.0
 40
1.330900000000311
  0
CIRCLE
  5
D6F
330
1F
100
AcDbEntity
  8
0
100
AcDbCircle
 10
-189.5381
 20
-2944.456500000001
 30
0.0
 40
1.325500000000069
  0
CIRCLE
  5
D70
330
1F
100
AcDbEntity
  8
0
100
AcDbCircle
 10
-189.5381
 20
-2949.465450000001
 30
0.0
 40
1.320125000000238
  0
CIRCLE
  5
D71
330
1F
100
AcDbEntity
  8
0
100
AcDbCircle
 10
-189.5381
 20
-2954.474450000001
 30
0.0
 40
1.314725000000001
  0
CIRCLE
  5
D72
330
1F
100
AcDbEntity
  8
0
100
AcDbCircle
 10
-189.5381
 20
-2959.48345
 30
0.0
 40
1.309374999999995
  0
CIRCLE
  5
D73
330
1F
100
AcDbEntity
  8
0
100
AcDbCircle
 10
-189.5381
 20
-2964.492450000001
 30
0.0
 40
1.303974999999758
  0
CIRCLE
  5
D74
330
1F
100
AcDbEntity
  8
0
100
AcDbCircle
 10
-189.5381
 20
-2969.501450000001
 30
0.0
 40
1.298574999999764
  0
CIRCLE
  5
D75
330
1F
100
AcDbEntity
  8
0
100
AcDbCircle
 10
-189.5381
 20
-2974.510450000001
 30
0.0
 40
1.293175000000323
  0
CIRCLE
  5
D76
330
1F
100
AcDbEntity
  8
0
100
AcDbCircle
 10
-189.5381
 20
-2979.51945
 30
0.0
 40
1.287775000000087
  0
CIRCLE
  5
D77
330
1F
100
AcDbEntity
  8
0
100
AcDbCircle
 10
-189.5381
 20
-2984.52845
 30
0.0
 40
1.282375000000093
  0
CIRCLE
  5
D78
330
1F
100
AcDbEntity
  8
0
100
AcDbCircle
 10
-189.5381
 20
-2989.537450000002
 30
0.0
 40
1.276975000000311
  0
CIRCLE
  5
D79
330
1F
100
AcDbEntity
  8
0
100
AcDbCircle
 10
-189.5381
 20
-2994.5464
 30
0.0
 40
1.271599999999899
  0
CIRCLE
  5
D7A
330
1F
100
AcDbEntity
  8
0
100
AcDbCircle
 10
-189.5381
 20
-2999.5554
 30
0.0
 40
1.266200000000032
  0
CIRCLE
  5
D7B
330
1F
100
AcDbEntity
  8
0
100
AcDbCircle
 10
-189.5381
 20
-3004.564400000001
 30
0.0
 40
1.260799999999782
  0
CIRCLE
  5
D7C
330
1F
100
AcDbEntity
  8
0
100
AcDbCircle
 10
-189.5381
 20
-3009.573400000001
 30
0.0
 40
1.2554
  0
CIRCLE
  5
D7D
330
1F
100
AcDbEntity
  8
0
100
AcDbCircle
 10
-189.5381
 20
-3014.5824
 30
0.0
 40
1.25
  0
CIRCLE
  5
D7E
330
1F
100
AcDbEntity
  8
0
100
AcDbCircle
 10
-189.5381
 20
-3019.5914
 30
0.0
 40
1.244599999999998
  0
CIRCLE
  5
D7F
330
1F
100
AcDbEntity
  8
0
100
AcDbCircle
 10
-189.5381
 20
-3024.6004
 30
0.0
 40
1.239199999999988
  0
CIRCLE
  5
D80
330
1F
100
AcDbEntity
  8
0
100
AcDbCircle
 10
-189.5381
 20
-3029.6094
 30
0.0
 40
1.23379999999998
  0
CIRCLE
  5
D81
330
1F
100
AcDbEntity
  8
0
100
AcDbCircle
 10
-189.5381
 20
-3034.6184
 30
0.0
 40
1.228399999999985
  0
CIRCLE
  5
D82
330
1F
100
AcDbEntity
  8
0
100
AcDbCircle
 10
-189.5381
 20
-3039.62735
 30
0.0
 40
1.223024999999914
  0
CIRCLE
  5
D83
330
1F
100
AcDbEntity
  8
0
100
AcDbCircle
 10
-189.5381
 20
-3044.636350000001
 30
0.0
 40
1.217625000000019
  0
CIRCLE
  5
D84
330
1F
100
AcDbEntity
  8
0
100
AcDbCircle
 10
-189.5381
 20
-3049.64535
 30
0.0
 40
1.21222499999991
  0
CIRCLE
  5
D85
330
1F
100
AcDbEntity
  8
0
100
AcDbCircle
 10
-189.5381
 20
-3054.654350000002
 30
0.0
 40
1.206824999999674
  0
CIRCLE
  5
D86
330
1F
100
AcDbEntity
  8
0
100
AcDbCircle
 10
-189.5381
 20
-3059.66335
 30
0.0
 40
1.201425000000007
  0
CIRCLE
  5
D87
330
1F
100
AcDbEntity
  8
0
100
AcDbCircle
 10
-189.5381
 20
-3064.67235
 30
0.0
 40
1.196025000000011
  0
CIRCLE
  5
D88
330
1F
100
AcDbEntity
  8
0
100
AcDbCircle
 10
-189.5381
 20
-3069.68135
 30
0.0
 40
1.190625000000117
  0
CIRCLE
  5
D89
330
1F
100
AcDbEntity
  8
0
100
AcDbCircle
 10
-189.5381
 20
-3074.69035
 30
0.0
 40
1.185274999999996
  0
CIRCLE
  5
D8A
330
1F
100
AcDbEntity
  8
0
100
AcDbCircle
 10
-189.5381
 20
-3079.69935
 30
0.0
 40
1.179874999999988
  0
CIRCLE
  5
D8B
330
1F
100
AcDbEntity
  8
0
100
AcDbCircle
 10
-189.5381
 20
-3084.7083
 30
0.0
 40
1.174499999999929
  0
CIRCLE
  5
D8C
330
1F
100
AcDbEntity
  8
0
100
AcDbCircle
 10
-189.5381
 20
-3089.7173
 30
0.0
 40
1.169099999999914
  0
CIRCLE
  5
D8D
330
1F
100
AcDbEntity
  8
0
100
AcDbCircle
 10
-189.5381
 20
-3094.7263
 30
0.0
 40
1.163699999999913
  0
CIRCLE
  5
D8E
330
1F
100
AcDbEntity
  8
0
100
AcDbCircle
 10
-189.5381
 20
-3099.735300000001
 30
0.0
 40
1.158299999999691
  0
CIRCLE
  5
D8F
330
1F
100
AcDbEntity
  8
0
100
AcDbCircle
 10
-189.5381
 20
-3104.74425
 30
0.0
 40
1.152875000000079
  0
CIRCLE
  5
D90
330
1F
100
AcDbEntity
  8
0
100
AcDbCircle
 10
-189.5381
 20
-3109.753250000001
 30
0.0
 40
1.147475000000077
  0
CIRCLE
  5
D91
330
1F
100
AcDbEntity
  8
0
100
AcDbCircle
 10
-189.5381
 20
-3114.76225
 30
0.0
 40
1.142075000000082
  0
CIRCLE
  5
D92
330
1F
100
AcDbEntity
  8
0
100
AcDbCircle
 10
-189.5381
 20
-3119.771250000001
 30
0.0
 40
1.136675000000302
  0
CIRCLE
  5
D93
330
1F
100
AcDbEntity
  8
0
100
AcDbCircle
 10
-189.5381
 20
-3124.7802
 30
0.0
 40
1.131300000000003
  0
CIRCLE
  5
D94
330
1F
100
AcDbEntity
  8
0
100
AcDbCircle
 10
-189.5381
 20
-3129.789200000001
 30
0.0
 40
1.125900000000227
  0
CIRCLE
  5
D95
330
1F
100
AcDbEntity
  8
0
100
AcDbCircle
 10
-189.5381
 20
-3134.7982
 30
0.0
 40
1.120499999999998
  0
CIRCLE
  5
D96
330
1F
100
AcDbEntity
  8
0
100
AcDbCircle
 10
-189.5381
 20
-3139.8072
 30
0.0
 40
1.11509999999999
  0
CIRCLE
  5
D97
330
1F
100
AcDbEntity
  8
0
100
AcDbCircle
 10
-189.5381
 20
-3144.816200000001
 30
0.0
 40
1.109700000000096
  0
CIRCLE
  5
D98
330
1F
100
AcDbEntity
  8
0
100
AcDbCircle
 10
-189.5381
 20
-3149.8252
 30
0.0
 40
1.104300000000115
  0
CIRCLE
  5
D99
330
1F
100
AcDbEntity
  8
0
100
AcDbCircle
 10
-189.5381
 20
-3154.8342
 30
0.0
 40
1.098900000000092
  0
CIRCLE
  5
D9A
330
1F
100
AcDbEntity
  8
0
100
AcDbCircle
 10
-189.5381
 20
-3159.8432
 30
0.0
 40
1.093500000000311
  0
CIRCLE
  5
D9B
330
1F
100
AcDbEntity
  8
0
100
AcDbCircle
 10
-189.5381
 20
-3164.8522
 30
0.0
 40
1.088100000000089
  0
CIRCLE
  5
D9C
330
1F
100
AcDbEntity
  8
0
100
AcDbCircle
 10
-189.5381
 20
-3169.861150000001
 30
0.0
 40
1.082725000000245
  0
CIRCLE
  5
D9D
330
1F
100
AcDbEntity
  8
0
100
AcDbCircle
 10
-189.5381
 20
-3174.870150000002
 30
0.0
 40
1.07732499999978
  0
CIRCLE
  5
D9E
330
1F
100
AcDbEntity
  8
0
100
AcDbCircle
 10
-189.5381
 20
-3179.879150000001
 30
0.0
 40
1.07192500000024
  0
CIRCLE
  5
D9F
330
1F
100
AcDbEntity
  8
0
100
AcDbCircle
 10
-189.5381
 20
-3184.888150000001
 30
0.0
 40
1.066524999999892
  0
CIRCLE
  5
DA0
330
1F
100
AcDbEntity
  8
0
100
AcDbCircle
 10
-189.5381
 20
-3189.89715
 30
0.0
 40
1.061174999999997
  0
CIRCLE
  5
DA1
330
1F
100
AcDbEntity
  8
0
100
AcDbCircle
 10
-189.5381
 20
-3194.90615
 30
0.0
 40
1.055774999999989
  0
CIRCLE
  5
DA2
330
1F
100
AcDbEntity
  8
0
100
AcDbCircle
 10
-189.5381
 20
-3199.91515
 30
0.0
 40
1.050374999999994
  0
CIRCLE
  5
DA3
330
1F
100
AcDbEntity
  8
0
100
AcDbCircle
 10
-189.5381
 20
-3204.92415
 30
0.0
 40
1.044974999999985
  0
CIRCLE
  5
DA4
330
1F
100
AcDbEntity
  8
0
100
AcDbCircle
 10
-189.5381
 20
-3209.93315
 30
0.0
 40
1.039574999999977
  0
CIRCLE
  5
DA5
330
1F
100
AcDbEntity
  8
0
100
AcDbCircle
 10
-189.5381
 20
-3214.9421
 30
0.0
 40
1.034199999999692
  0
CIRCLE
  5
DA6
330
1F
100
AcDbEntity
  8
0
100
AcDbCircle
 10
-189.5381
 20
-3219.9511
 30
0.0
 40
1.028799999999684
  0
CIRCLE
  5
DA7
330
1F
100
AcDbEntity
  8
0
100
AcDbCircle
 10
-189.5381
 20
-3224.9601
 30
0.0
 40
1.023399999999901
  0
CIRCLE
  5
DA8
330
1F
100
AcDbEntity
  8
0
100
AcDbCircle
 10
-189.5381
 20
-3229.9691
 30
0.0
 40
1.017999999999665
  0
CIRCLE
  5
DA9
330
1F
100
AcDbEntity
  8
0
100
AcDbCircle
 10
-189.5381
 20
-3234.9781
 30
0.0
 40
1.012600000000013
  0
CIRCLE
  5
DAA
330
1F
100
AcDbEntity
  8
0
100
AcDbCircle
 10
-189.5381
 20
-3239.9871
 30
0.0
 40
1.007200000000004
  0
CIRCLE
  5
DAB
330
1F
100
AcDbEntity
  8
0
100
AcDbCircle
 10
-189.5381
 20
-3244.9961
 30
0.0
 40
1.001799999999994
  0
CIRCLE
  5
DAC
330
1F
100
AcDbEntity
  8
0
100
AcDbCircle
 10
-189.5381
 20
-3250.0051
 30
0.0
 40
0.9964000000000011
  0
CIRCLE
  5
DAD
330
1F
100
AcDbEntity
  8
0
100
AcDbCircle
 10
-189.5381
 20
-3255.014050000001
 30
0.0
 40
0.9910250000000432
  0
CIRCLE
  5
DAE
330
1F
100
AcDbEntity
  8
0
100
AcDbCircle
 10
-189.5381
 20
-3260.02305
 30
0.0
 40
0.9856249999999063
  0
CIRCLE
  5
DAF
330
1F
100
AcDbEntity
  8
0
100
AcDbCircle
 10
-189.5381
 20
-3265.03205
 30
0.0
 40
0.980224999999926
  0
CIRCLE
  5
DB0
330
1F
100
AcDbEntity
  8
0
100
AcDbCircle
 10
-189.5381
 20
-3270.041050000001
 30
0.0
 40
0.9748249999996899
  0
CIRCLE
  5
DB1
330
1F
100
AcDbEntity
  8
0
100
AcDbCircle
 10
-189.5381
 20
-3275.05005
 30
0.0
 40
0.9694250000000224
  0
CIRCLE
  5
DB2
330
1F
100
AcDbEntity
  8
0
100
AcDbCircle
 10
-189.5381
 20
-3280.059
 30
0.0
 40
0.9639999999999771
  0
CIRCLE
  5
DB3
330
1F
100
AcDbEntity
  8
0
100
AcDbCircle
 10
-189.5381
 20
-3285.068000000001
 30
0.0
 40
0.958600000000082
  0
CIRCLE
  5
DB4
330
1F
100
AcDbEntity
  8
0
100
AcDbCircle
 10
-189.5381
 20
-3290.077
 30
0.0
 40
0.9532000000000737
  0
CIRCLE
  5
DB5
330
1F
100
AcDbEntity
  8
0
100
AcDbCircle
 10
-189.5381
 20
-3295.086000000001
 30
0.0
 40
0.9478000000000648
  0
CIRCLE
  5
DB6
330
1F
100
AcDbEntity
  8
0
100
AcDbCircle
 10
-189.5381
 20
-3300.09495
 30
0.0
 40
0.9424250000000071
  0
CIRCLE
  5
DB7
330
1F
100
AcDbEntity
  8
0
100
AcDbCircle
 10
-189.5381
 20
-3305.103949999999
 30
0.0
 40
0.9370749999998864
  0
CIRCLE
  5
DB8
330
1F
100
AcDbEntity
  8
0
100
AcDbCircle
 10
-189.5381
 20
-3310.112950000001
 30
0.0
 40
0.9316750000002187
  0
CIRCLE
  5
DB9
330
1F
100
AcDbEntity
  8
0
100
AcDbCircle
 10
-189.5381
 20
-3315.121950000001
 30
0.0
 40
0.9262749999997692
  0
CIRCLE
  5
DBA
330
1F
100
AcDbEntity
  8
0
100
AcDbCircle
 10
-189.5381
 20
-3320.13095
 30
0.0
 40
0.9208750000001018
  0
CIRCLE
  5
DBB
330
1F
100
AcDbEntity
  8
0
100
AcDbCircle
 10
-189.5381
 20
-3325.13995
 30
0.0
 40
0.9154750000000928
  0
CIRCLE
  5
DBC
330
1F
100
AcDbEntity
  8
0
100
AcDbCircle
 10
-189.5381
 20
-3330.148950000001
 30
0.0
 40
0.9100750000003261
  0
CIRCLE
  5
DBD
330
1F
100
AcDbEntity
  8
0
100
AcDbCircle
 10
-189.5381
 20
-3335.15795
 30
0.0
 40
0.9046750000000898
  0
CIRCLE
  5
DBE
330
1F
100
AcDbEntity
  8
0
100
AcDbCircle
 10
-189.5381
 20
-3340.16695
 30
0.0
 40
0.8992750000000809
  0
CIRCLE
  5
DBF
330
1F
100
AcDbEntity
  8
0
100
AcDbCircle
 10
-189.5381
 20
-3345.175900000001
 30
0.0
 40
0.8938999999997887
  0
CIRCLE
  5
DC0
330
1F
100
AcDbEntity
  8
0
100
AcDbCircle
 10
-189.5381
 20
-3350.1849
 30
0.0
 40
0.8885000000000147
  0
CIRCLE
  5
DC1
330
1F
100
AcDbEntity
  8
0
100
AcDbCircle
 10
-189.5381
 20
-3355.193900000001
 30
0.0
 40
0.8831000000002331
  0
CIRCLE
  5
DC2
330
1F
100
AcDbEntity
  8
0
100
AcDbCircle
 10
-189.5381
 20
-3360.2029
 30
0.0
 40
0.8776999999998833
  0
CIRCLE
  5
DC3
330
1F
100
AcDbEntity
  8
0
100
AcDbCircle
 10
-189.5381
 20
-3365.211899999999
 30
0.0
 40
0.8722999999997751
  0
CIRCLE
  5
DC4
330
1F
100
AcDbEntity
  8
0
100
AcDbCircle
 10
-189.5381
 20
-3370.2209
 30
0.0
 40
0.8668999999996529
  0
CIRCLE
  5
DC5
330
1F
100
AcDbEntity
  8
0
100
AcDbCircle
 10
-189.5381
 20
-3375.2299
 30
0.0
 40
0.861499999999985
  0
CIRCLE
  5
DC6
330
1F
100
AcDbEntity
  8
0
100
AcDbCircle
 10
-189.5381
 20
-3380.2389
 30
0.0
 40
0.8560999999999836
  0
CIRCLE
  5
DC7
330
1F
100
AcDbEntity
  8
0
100
AcDbCircle
 10
-189.5381
 20
-3385.247850000001
 30
0.0
 40
0.8507249999996915
  0
CIRCLE
  5
DC8
330
1F
100
AcDbEntity
  8
0
100
AcDbCircle
 10
-189.5381
 20
-3390.25685
 30
0.0
 40
0.8453249999999099
  0
CIRCLE
  5
DC9
330
1F
100
AcDbEntity
  8
0
100
AcDbCircle
 10
-189.5381
 20
-3395.26585
 30
0.0
 40
0.8399249999999014
  0
CIRCLE
  5
DCA
330
1F
100
AcDbEntity
  8
0
100
AcDbCircle
 10
-189.5381
 20
-3400.274850000001
 30
0.0
 40
0.8345249999996795
  0
CIRCLE
  5
DCB
330
1F
100
AcDbEntity
  8
0
100
AcDbCircle
 10
-189.5381
 20
-3405.28385
 30
0.0
 40
0.8291250000000117
  0
CIRCLE
  5
DCC
330
1F
100
AcDbEntity
  8
0
100
AcDbCircle
 10
-189.5381
 20
-3410.29285
 30
0.0
 40
0.8237249999999889
  0
CIRCLE
  5
DCD
330
1F
100
AcDbEntity
  8
0
100
AcDbCircle
 10
-189.5381
 20
-3415.30185
 30
0.0
 40
0.8183250000000086
  0
CIRCLE
  5
DCE
330
1F
100
AcDbEntity
  8
0
100
AcDbCircle
 10
-189.5381
 20
-3420.31085
 30
0.0
 40
0.8129249999999997
  0
CIRCLE
  5
DCF
330
1F
100
AcDbEntity
  8
0
100
AcDbCircle
 10
-189.5381
 20
-3425.31985
 30
0.0
 40
0.8075749999999928
  0
CIRCLE
  5
DD0
330
1F
100
AcDbEntity
  8
0
100
AcDbCircle
 10
-189.5381
 20
-3430.3288
 30
0.0
 40
0.8021999999997078
  0
CIRCLE
  5
DD1
330
1F
100
AcDbEntity
  8
0
100
AcDbCircle
 10
-189.5381
 20
-3435.3378
 30
0.0
 40
0.7968000000000403
  0
CIRCLE
  5
DD2
330
1F
100
AcDbEntity
  8
0
100
AcDbCircle
 10
-189.5381
 20
-3440.3468
 30
0.0
 40
0.7913999999996904
  0
CIRCLE
  5
DD3
330
1F
100
AcDbEntity
  8
0
100
AcDbCircle
 10
-189.5381
 20
-3445.3558
 30
0.0
 40
0.7859999999999091
  0
CIRCLE
  5
DD4
330
1F
100
AcDbEntity
  8
0
100
AcDbCircle
 10
-189.5381
 20
-3450.36475
 30
0.0
 40
0.7805750000000913
  0
CIRCLE
  5
DD5
330
1F
100
AcDbEntity
  8
0
100
AcDbCircle
 10
-189.5381
 20
-3455.373750000001
 30
0.0
 40
0.7751750000000826
  0
CIRCLE
  5
DD6
330
1F
100
AcDbEntity
  8
0
100
AcDbCircle
 10
-189.5381
 20
-3460.38275
 30
0.0
 40
0.7697750000000739
  0
CIRCLE
  5
DD7
330
1F
100
AcDbEntity
  8
0
100
AcDbCircle
 10
-189.5381
 20
-3465.39175
 30
0.0
 40
0.7643750000000793
  0
CIRCLE
  5
DD8
330
1F
100
AcDbEntity
  8
0
100
AcDbCircle
 10
-189.5381
 20
-3470.400750000001
 30
0.0
 40
0.7589750000002981
  0
CIRCLE
  5
DD9
330
1F
100
AcDbEntity
  8
0
100
AcDbCircle
 10
-189.5381
 20
-3475.4097
 30
0.0
 40
0.7535999999999988
  0
CIRCLE
  5
DDA
330
1F
100
AcDbEntity
  8
0
100
AcDbCircle
 10
-189.5381
 20
-3480.418700000001
 30
0.0
 40
0.7482000000000042
  0
CIRCLE
  5
DDB
330
1F
100
AcDbEntity
  8
0
100
AcDbCircle
 10
-189.5381
 20
-3485.427700000001
 30
0.0
 40
0.7427999999997681
  0
CIRCLE
  5
DDC
330
1F
100
AcDbEntity
  8
0
100
AcDbCircle
 10
-189.5381
 20
-3490.4367
 30
0.0
 40
0.7373999999999869
  0
CIRCLE
  5
DDD
330
1F
100
AcDbEntity
  8
0
100
AcDbCircle
 10
-189.5381
 20
-3495.445700000001
 30
0.0
 40
0.7320000000001059
  0
CIRCLE
  5
DDE
330
1F
100
AcDbEntity
  8
0
100
AcDbCircle
 10
-189.5381
 20
-3500.454700000001
 30
0.0
 40
0.7266000000003247
  0
CIRCLE
  5
DDF
330
1F
100
AcDbEntity
  8
0
100
AcDbCircle
 10
-189.5381
 20
-3505.463700000002
 30
0.0
 40
0.7212000000000886
  0
CIRCLE
  5
DE0
330
1F
100
AcDbEntity
  8
0
100
AcDbCircle
 10
-189.5381
 20
-3510.472700000001
 30
0.0
 40
0.7158000000000797
  0
CIRCLE
  5
DE1
330
1F
100
AcDbEntity
  8
0
100
AcDbCircle
 10
-189.5381
 20
-3515.481650000001
 30
0.0
 40
0.7104249999997947
  0
CIRCLE
  5
DE2
330
1F
100
AcDbEntity
  8
0
100
AcDbCircle
 10
-189.5381
 20
-3520.490650000001
 30
0.0
 40
0.7050250000002407
  0
CIRCLE
  5
DE3
330
1F
100
AcDbEntity
  8
0
100
AcDbCircle
 10
-189.5381
 20
-3525.49965
 30
0.0
 40
0.6996249999997774
  0
CIRCLE
  5
DE4
330
1F
100
AcDbEntity
  8
0
100
AcDbCircle
 10
-189.5381
 20
-3530.50865
 30
0.0
 40
0.6942250000000101
  0
CIRCLE
  5
DE5
330
1F
100
AcDbEntity
  8
0
100
AcDbCircle
 10
-189.5381
 20
-3535.51765
 30
0.0
 40
0.6888250000000014
  0
CIRCLE
  5
DE6
330
1F
100
AcDbEntity
  8
0
100
AcDbCircle
 10
-189.5381
 20
-3540.52665
 30
0.0
 40
0.6834749999999943
  0
CIRCLE
  5
DE7
330
1F
100
AcDbEntity
  8
0
100
AcDbCircle
 10
-189.5381
 20
-3545.53565
 30
0.0
 40
0.6780749999999856
  0
CIRCLE
  5
DE8
330
1F
100
AcDbEntity
  8
0
100
AcDbCircle
 10
-189.5381
 20
-3550.544650000001
 30
0.0
 40
0.67267499999965
  0
CIRCLE
  5
DE9
330
1F
100
AcDbEntity
  8
0
100
AcDbCircle
 10
-189.5381
 20
-3555.55365
 30
0.0
 40
0.6672749999999823
  0
CIRCLE
  5
DEA
330
1F
100
AcDbEntity
  8
0
100
AcDbCircle
 10
-189.5381
 20
-3560.5626
 30
0.0
 40
0.6618999999999105
  0
CIRCLE
  5
DEB
330
1F
100
AcDbEntity
  8
0
100
AcDbCircle
 10
-189.5381
 20
-3565.571600000001
 30
0.0
 40
0.6564999999999161
  0
CIRCLE
  5
DEC
330
1F
100
AcDbEntity
  8
0
100
AcDbCircle
 10
-189.5381
 20
-3570.580599999999
 30
0.0
 40
0.6510999999999072
  0
CIRCLE
  5
DED
330
1F
100
AcDbEntity
  8
0
100
AcDbCircle
 10
-189.5381
 20
-3575.5896
 30
0.0
 40
0.6456999999998985
  0
CIRCLE
  5
DEE
330
1F
100
AcDbEntity
  8
0
100
AcDbCircle
 10
-189.5381
 20
-3580.5986
 30
0.0
 40
0.6403000000000178
  0
CIRCLE
  5
DEF
330
1F
100
AcDbEntity
  8
0
100
AcDbCircle
 10
-189.5381
 20
-3585.6076
 30
0.0
 40
0.6349000000000089
  0
CIRCLE
  5
DF0
330
1F
100
AcDbEntity
  8
0
100
AcDbCircle
 10
-189.5381
 20
-3590.6166
 30
0.0
 40
0.6295000000000002
  0
CIRCLE
  5
DF1
330
1F
100
AcDbEntity
  8
0
100
AcDbCircle
 10
-189.5381
 20
-3595.6256
 30
0.0
 40
0.6240999999999986
  0
CIRCLE
  5
DF2
330
1F
100
AcDbEntity
  8
0
100
AcDbCircle
 10
-189.5381
 20
-3600.6346
 30
0.0
 40
0.6186999999999971
  0
CIRCLE
  5
DF3
330
1F
100
AcDbEntity
  8
0
100
AcDbCircle
 10
-189.5381
 20
-3605.64355
 30
0.0
 40
0.6133249999999251
  0
CIRCLE
  5
DF4
330
1F
100
AcDbEntity
  8
0
100
AcDbCircle
 10
-189.5381
 20
-3610.652550000001
 30
0.0
 40
0.607924999999689
  0
CIRCLE
  5
DF5
330
1F
100
AcDbEntity
  8
0
100
AcDbCircle
 10
-189.5381
 20
-3615.66155
 30
0.0
 40
0.6025249999999219
  0
CIRCLE
  5
DF6
330
1F
100
AcDbEntity
  8
0
100
AcDbCircle
 10
-189.5380999999999
 20
-3620.670550000002
 30
0.0
 40
0.5971249999997072
  0
CIRCLE
  5
DF7
330
1F
100
AcDbEntity
  8
0
100
AcDbCircle
 10
-189.5381
 20
-3625.6795
 30
0.0
 40
0.5917000000000812
  0
CIRCLE
  5
DF8
330
1F
100
AcDbEntity
  8
0
100
AcDbCircle
 10
-189.5381
 20
-3630.6885
 30
0.0
 40
0.5863000000000868
  0
CIRCLE
  5
DF9
330
1F
100
AcDbEntity
  8
0
100
AcDbCircle
 10
-189.5381
 20
-3635.697500000001
 30
0.0
 40
0.5809000000003124
  0
CIRCLE
  5
DFA
330
1F
100
AcDbEntity
  8
0
100
AcDbCircle
 10
-189.5381
 20
-3640.7065
 30
0.0
 40
0.5755000000000692
  0
CIRCLE
  5
DFB
330
1F
100
AcDbEntity
  8
0
100
AcDbCircle
 10
-189.5381
 20
-3645.715450000001
 30
0.0
 40
0.570125000000239
  0
CIRCLE
  5
DFC
330
1F
100
AcDbEntity
  8
0
100
AcDbCircle
 10
-189.5381
 20
-3650.724450000002
 30
0.0
 40
0.5647249999997756
  0
CIRCLE
  5
DFD
330
1F
100
AcDbEntity
  8
0
100
AcDbCircle
 10
-189.5381
 20
-3655.73345
 30
0.0
 40
0.5593749999999959
  0
CIRCLE
  5
DFE
330
1F
100
AcDbEntity
  8
0
100
AcDbCircle
 10
-189.5381
 20
-3660.742450000002
 30
0.0
 40
0.5539750000002144
  0
CIRCLE
  5
DFF
330
1F
100
AcDbEntity
  8
0
100
AcDbCircle
 10
-189.5381
 20
-3665.751450000001
 30
0.0
 40
0.5485749999999925
  0
CIRCLE
  5
E00
330
1F
100
AcDbEntity
  8
0
100
AcDbCircle
 10
-189.5381
 20
-3670.760449999999
 30
0.0
 40
0.5431750000000976
  0
CIRCLE
  5
E01
330
1F
100
AcDbEntity
  8
0
100
AcDbCircle
 10
-189.5381
 20
-3675.76945
 30
0.0
 40
0.5377750000000887
  0
CIRCLE
  5
E02
330
1F
100
AcDbEntity
  8
0
100
AcDbCircle
 10
-189.5381
 20
-3680.77845
 30
0.0
 40
0.5323750000000942
  0
CIRCLE
  5
E03
330
1F
100
AcDbEntity
  8
0
100
AcDbCircle
 10
-189.5381
 20
-3685.78745
 30
0.0
 40
0.5269750000000855
  0
CIRCLE
  5
E04
330
1F
100
AcDbEntity
  8
0
100
AcDbCircle
 10
-189.5381
 20
-3690.7964
 30
0.0
 40
0.5215999999999
  0
CIRCLE
  5
E05
330
1F
100
AcDbEntity
  8
0
100
AcDbCircle
 10
-189.5381
 20
-3695.805400000001
 30
0.0
 40
0.5161999999997918
  0
CIRCLE
  5
E06
330
1F
100
AcDbEntity
  8
0
100
AcDbCircle
 10
-189.5381
 20
-3700.8144
 30
0.0
 40
0.5108000000000104
  0
CIRCLE
  5
E07
330
1F
100
AcDbEntity
  8
0
100
AcDbCircle
 10
-189.5381
 20
-3705.823400000001
 30
0.0
 40
0.5054000000000018
  0
CIRCLE
  5
E09
330
1F
100
AcDbEntity
  8
0
100
AcDbCircle
 10
-189.5381
 20
1865.6676
 30
0.0
 40
2.0
  0
CIRCLE
  5
E0A
330
1F
100
AcDbEntity
  8
0
100
AcDbCircle
 10
-189.5381
 20
-2318.3324
 30
0.0
 40
2.0
  0
CIRCLE
  5
E0B
330
1F
100
AcDbEntity
  8
0
100
AcDbCircle
 10
-189.5381
 20
-3710.8324
 30
0.0
 40
0.5
  0
ENDSEC
  0
SECTION
  2
OBJECTS
  0
DICTIONARY
  5
C
330
0
100
AcDbDictionary
281
     1
  3
ACAD_2007HEADERVARS_RT
350
E92
  3
ACAD_CIP_PREVIOUS_PRODUCT_INFO
350
501
  3
ACAD_COLOR
350
4FC
  3
ACAD_DETAILVIEWSTYLE
350
4F8
  3
ACAD_GROUP
350
D
  3
ACAD_LAYOUT
350
1A
  3
ACAD_MATERIAL
350
43
  3
ACAD_MLEADERSTYLE
350
5B
  3
ACAD_MLINESTYLE
350
17
  3
ACAD_PLOTSETTINGS
350
19
  3
ACAD_PLOTSTYLENAME
350
E
  3
ACAD_SCALELIST
350
47
  3
ACAD_SECTIONVIEWSTYLE
350
4F9
  3
ACAD_TABLESTYLE
350
59
  3
ACAD_VISUALSTYLE
350
2A
  3
ACDB_RECOMPOSE_DATA
350
E91
  3
AcDbVariableDictionary
350
4BD
  0
DICTIONARY
  5
E3B
330
2
100
AcDbDictionary
280
     1
281
     1
  3
ACAD_LAYERSTATES
360
E3C
  0
DICTIONARY
  5
502
330
10
100
AcDbDictionary
280
     1
281
     1
  3
ADSK_XREC_LAYER_RECONCILED
360
503
  0
DICTIONARY
  5
E85
330
E1D
100
AcDbDictionary
280
     1
281
     1
  3
ACAD_MTEXT_2008_RT
360
EC9
  0
DICTIONARY
  5
E87
330
E31
100
AcDbDictionary
280
     1
281
     1
  3
ACAD_MTEXT_2008_RT
360
ECA
  0
DICTIONARY
  5
E92
102
{ACAD_REACTORS
330
C
102
}
330
C
100
AcDbDictionary
281
     1
  3
INTERFERECOLOR
350
E93
  0
XRECORD
  5
501
102
{ACAD_REACTORS
330
C
102
}
330
C
100
AcDbXrecord
280
     1
300
ACD
300
2020
300
87224ACD_2020_0F
  0
DICTIONARY
  5
4FC
102
{ACAD_REACTORS
330
C
102
}
330
C
100
AcDbDictionary
281
     1
  0
DICTIONARY
  5
4F8
102
{ACAD_REACTORS
330
C
102
}
330
C
100
AcDbDictionary
281
     1
  3
Imperial24
350
4FE
  0
DICTIONARY
  5
D
102
{ACAD_REACTORS
330
C
102
}
330
C
100
AcDbDictionary
281
     1
  0
DICTIONARY
  5
1A
102
{ACAD_REACTORS
330
C
102
}
330
C
100
AcDbDictionary
281
     1
  3
Layout1
350
1E
  3
Layout2
350
26
  3
Model
350
22
  0
DICTIONARY
  5
43
102
{ACAD_REACTORS
330
C
102
}
330
C
100
AcDbDictionary
281
     1
  3
ByBlock
350
45
  3
ByLayer
350
44
  3
Global
350
46
  0
DICTIONARY
  5
5B
102
{ACAD_REACTORS
330
C
102
}
330
C
100
AcDbDictionary
281
     1
  3
Standard
350
5C
  0
DICTIONARY
  5
17
102
{ACAD_REACTORS
330
C
102
}
330
C
100
AcDbDictionary
281
     1
  3
Standard
350
18
  0
DICTIONARY
  5
19
102
{ACAD_REACTORS
330
C
102
}
330
C
100
AcDbDictionary
281
     1
  0
ACDBDICTIONARYWDFLT
  5
E
102
{ACAD_REACTORS
330
C
102
}
330
C
100
AcDbDictionary
281
     1
  3
Normal
350
F
100
AcDbDictionaryWithDefault
340
F
  0
DICTIONARY
  5
47
102
{ACAD_REACTORS
330
C
102
}
330
C
100
AcDbDictionary
281
     1
  3
A0
350
48
  3
A1
350
49
  3
A2
350
4A
  3
A3
350
4B
  3
A4
350
4C
  3
A5
350
4D
  3
A6
350
4E
  3
A7
350
4F
  3
A8
350
50
  3
A9
350
51
  3
B1
350
52
  3
B2
350
53
  3
B3
350
54
  3
B4
350
55
  3
B5
350
56
  3
B6
350
57
  3
B7
350
58
  0
DICTIONARY
  5
4F9
102
{ACAD_REACTORS
330
C
102
}
330
C
100
AcDbDictionary
281
     1
  3
Imperial24
350
4FD
  0
DICTIONARY
  5
59
102
{ACAD_REACTORS
330
C
102
}
330
C
100
AcDbDictionary
281
     1
  3
Standard
350
5A
  0
DICTIONARY
  5
2A
102
{ACAD_REACTORS
330
C
102
}
330
C
100
AcDbDictionary
281
     1
  3
2dWireframe
350
2F
  3
Basic
350
32
  3
Brighten
350
36
  3
ColorChange
350
3A
  3
Conceptual
350
34
  3
Dim
350
35
  3
EdgeColorOff
350
3D
  3
Facepattern
350
39
  3
Flat
350
2B
  3
FlatWithEdges
350
2C
  3
Gouraud
350
2D
  3
GouraudWithEdges
350
2E
  3
Hidden
350
31
  3
JitterOff
350
3B
  3
Linepattern
350
38
  3
OverhangOff
350
3C
  3
Realistic
350
33
  3
Shaded
350
42
  3
Shaded with edges
350
41
  3
Shades of Gray
350
3E
  3
Sketchy
350
3F
  3
Thicken
350
37
  3
Wireframe
350
30
  3
X-Ray
350
40
  0
XRECORD
  5
E91
102
{ACAD_REACTORS
330
C
102
}
330
C
100
AcDbXrecord
280
     1
 90
        1
330
5A
  0
DICTIONARY
  5
4BD
102
{ACAD_REACTORS
330
C
102
}
330
C
100
AcDbDictionary
281
     1
  3
CANNOSCALE
350
4BE
  3
CMLEADERSTYLE
350
4F7
  3
CTABLESTYLE
350
4F6
  3
CVIEWDETAILSTYLE
350
506
  3
CVIEWSECTIONSTYLE
350
507
  3
DGNFRAME
350
50A
  3
LIGHTINGUNITS
350
509
  3
LOFTANG1
350
E8D
  3
LOFTANG2
350
E8E
  3
MSLTSCALE
350
508
  3
XCLIPFRAME
350
E8F
  0
DICTIONARY
  5
E3C
102
{ACAD_REACTORS
330
E3B
102
}
330
E3B
100
AcDbDictionary
281
     1
  0
XRECORD
  5
503
102
{ACAD_REACTORS
330
502
102
}
330
502
100
AcDbXrecord
280
     1
290
     1
  0
XRECORD
  5
EC9
102
{ACAD_REACTORS
330
E85
102
}
330
E85
100
AcDbXrecord
280
     1
 40
7987.0
  1
\A1;\U+22054.0000
  0
XRECORD
  5
ECA
102
{ACAD_REACTORS
330
E87
102
}
330
E87
100
AcDbXrecord
280
     1
 40
7951.0
  1
\A1;\U+22051.0000
  0
XRECORD
  5
E93
102
{ACAD_REACTORS
330
E92
102
}
330
E92
100
AcDbXrecord
280
     1
1004
1800000001000000000000C0000000000000000000000000
  0
ACDBDETAILVIEWSTYLE
  5
4FE
102
{ACAD_XDICTIONARY
360
EC7
102
}
102
{ACAD_REACTORS
330
4F8
102
}
330
4F8
100
AcDbModelDocViewStyle
 70
     0
  3
Imperial24
290
     0
100
AcDbDetailViewStyle
 70
     0
 71
     0
 90
        3
 71
     1
340
11
 62
   256
 40
0.24
340
0
 62
   256
 40
0.24
300

 40
0.36
280
     3
 71
     2
340
16
 90
       25
 62
   256
 71
     3
340
11
 62
   256
 40
0.24
 90
        1
 40
0.75
 90
        1
300
%<\AcVar ViewType \f "%tc1">% %<\AcVar ViewDetailId>%\PSCALE %<\AcVar ViewScale \f "%sn">%
 71
     4
340
16
 90
       25
 62
   256
340
16
 90
       25
 62
   256
280
     0
  0
LAYOUT
  5
1E
102
{ACAD_REACTORS
330
1A
102
}
330
1A
100
AcDbPlotSettings
  1

  2
none_device
  4

  6

 40
0.0
 41
0.0
 42
0.0
 43
0.0
 44
0.0
 45
0.0
 46
0.0
 47
0.0
 48
0.0
 49
0.0
140
0.0
141
0.0
142
1.0
143
1.0
 70
   688
 72
     0
 73
     0
 74
     5
  7

 75
    16
147
1.0
 76
     0
 77
     2
 78
   300
148
0.0
149
0.0
100
AcDbLayout
  1
Layout1
 70
     1
 71
     1
 10
0.0
 20
0.0
 11
12.0
 21
9.0
 12
0.0
 22
0.0
 32
0.0
 14
1.000000000000000E+20
 24
1.000000000000000E+20
 34
1.000000000000000E+20
 15
-1.000000000000000E+20
 25
-1.000000000000000E+20
 35
-1.000000000000000E+20
146
0.0
 13
0.0
 23
0.0
 33
0.0
 16
1.0
 26
0.0
 36
0.0
 17
0.0
 27
1.0
 37
0.0
 76
     0
330
1B
  0
LAYOUT
  5
26
102
{ACAD_REACTORS
330
1A
102
}
330
1A
100
AcDbPlotSettings
  1

  2
none_device
  4

  6

 40
0.0
 41
0.0
 42
0.0
 43
0.0
 44
0.0
 45
0.0
 46
0.0
 47
0.0
 48
0.0
 49
0.0
140
0.0
141
0.0
142
1.0
143
1.0
 70
   688
 72
     0
 73
     0
 74
     5
  7

 75
    16
147
1.0
 76
     0
 77
     2
 78
   300
148
0.0
149
0.0
100
AcDbLayout
  1
Layout2
 70
     1
 71
     2
 10
0.0
 20
0.0
 11
0.0
 21
0.0
 12
0.0
 22
0.0
 32
0.0
 14
0.0
 24
0.0
 34
0.0
 15
0.0
 25
0.0
 35
0.0
146
0.0
 13
0.0
 23
0.0
 33
0.0
 16
1.0
 26
0.0
 36
0.0
 17
0.0
 27
1.0
 37
0.0
 76
     0
330
23
  0
LAYOUT
  5
22
102
{ACAD_REACTORS
330
1A
102
}
330
1A
100
AcDbPlotSettings
  1

  2
none_device
  4
Letter_(8.50_x_11.00_Inches)
  6

 40
6.349999999999997
 41
6.349999999999997
 42
6.350005079999997
 43
6.350005079999997
 44
215.9
 45
279.4
 46
0.0
 47
0.0
 48
0.0
 49
0.0
140
0.0
141
0.0
142
1.0
143
1.0
 70
  1712
 72
     0
 73
     0
 74
     0
  7

 75
     0
147
1.0
 76
     0
 77
     2
 78
   300
148
0.0
149
0.0
100
AcDbLayout
  1
Model
 70
     1
 71
     0
 10
0.0
 20
0.0
 11
12.0
 21
9.0
 12
0.0
 22
0.0
 32
0.0
 14
-191.6381
 24
-3711.4324
 34
0.0
 15
-187.4380999999999
 25
1867.7676
 35
0.0
146
0.0
 13
0.0
 23
0.0
 33
0.0
 16
1.0
 26
0.0
 36
0.0
 17
0.0
 27
1.0
 37
0.0
 76
     0
330
1F
331
29
  0
MATERIAL
  5
45
102
{ACAD_XDICTIONARY
360
546
102
}
102
{ACAD_REACTORS
330
43
102
}
330
43
100
AcDbMaterial
  1
ByBlock
  0
MATERIAL
  5
44
102
{ACAD_XDICTIONARY
360
544
102
}
102
{ACAD_REACTORS
330
43
102
}
330
43
100
AcDbMaterial
  1
ByLayer
  0
MATERIAL
  5
46
102
{ACAD_XDICTIONARY
360
548
102
}
102
{ACAD_REACTORS
330
43
102
}
330
43
100
AcDbMaterial
  1
Global
  0
MLEADERSTYLE
  5
5C
102
{ACAD_REACTORS
330
5B
102
}
330
5B
100
AcDbMLeaderStyle
170
     2
171
     1
172
     0
 90
        2
 40
0.0
 41
0.0
173
     1
 91
-1056964608
340
14
 92
       -2
290
     1
 42
0.09
291
     1
 43
0.36
  3
Standard
 44
0.18
300

342
11
174
     1
178
     6
175
     1
176
     0
 93
-1056964608
 45
0.18
292
     0
297
     0
 46
0.18
 94
-1056964608
 47
1.0
 49
1.0
140
1.0
293
     1
141
0.0
294
     1
177
     0
142
1.0
295
     0
296
     0
143
0.125
1001
ACAD_MLEADERVER
1070
     2
  0
MLINESTYLE
  5
18
102
{ACAD_REACTORS
330
17
102
}
330
17
100
AcDbMlineStyle
  2
STANDARD
 70
     0
  3

 62
   256
 51
90.0
 52
90.0
 71
     2
 49
0.5
 62
   256
  6
BYLAYER
 49
-0.5
 62
   256
  6
BYLAYER
  0
ACDBPLACEHOLDER
  5
F
102
{ACAD_REACTORS
330
E
102
}
330
E
  0
SCALE
  5
48
102
{ACAD_REACTORS
330
47
102
}
330
47
100
AcDbScale
 70
     0
300
1:1
140
1.0
141
1.0
290
     1
  0
SCALE
  5
49
102
{ACAD_REACTORS
330
47
102
}
330
47
100
AcDbScale
 70
     0
300
1/128" = 1'-0"
140
0.0078125
141
12.0
290
     0
  0
SCALE
  5
4A
102
{ACAD_REACTORS
330
47
102
}
330
47
100
AcDbScale
 70
     0
300
1/64" = 1'-0"
140
0.015625
141
12.0
290
     0
  0
SCALE
  5
4B
102
{ACAD_REACTORS
330
47
102
}
330
47
100
AcDbScale
 70
     0
300
1/32" = 1'-0"
140
0.03125
141
12.0
290
     0
  0
SCALE
  5
4C
102
{ACAD_REACTORS
330
47
102
}
330
47
100
AcDbScale
 70
     0
300
1/16" = 1'-0"
140
0.0625
141
12.0
290
     0
  0
SCALE
  5
4D
102
{ACAD_REACTORS
330
47
102
}
330
47
100
AcDbScale
 70
     0
300
3/32" = 1'-0"
140
0.09375
141
12.0
290
     0
  0
SCALE
  5
4E
102
{ACAD_REACTORS
330
47
102
}
330
47
100
AcDbScale
 70
     0
300
1/8" = 1'-0"
140
0.125
141
12.0
290
     0
  0
SCALE
  5
4F
102
{ACAD_REACTORS
330
47
102
}
330
47
100
AcDbScale
 70
     0
300
3/16" = 1'-0"
140
0.1875
141
12.0
290
     0
  0
SCALE
  5
50
102
{ACAD_REACTORS
330
47
102
}
330
47
100
AcDbScale
 70
     0
300
1/4" = 1'-0"
140
0.25
141
12.0
290
     0
  0
SCALE
  5
51
102
{ACAD_REACTORS
330
47
102
}
330
47
100
AcDbScale
 70
     0
300
3/8" = 1'-0"
140
0.375
141
12.0
290
     0
  0
SCALE
  5
52
102
{ACAD_REACTORS
330
47
102
}
330
47
100
AcDbScale
 70
     0
300
1/2" = 1'-0"
140
0.5
141
12.0
290
     0
  0
SCALE
  5
53
102
{ACAD_REACTORS
330
47
102
}
330
47
100
AcDbScale
 70
     0
300
3/4" = 1'-0"
140
0.75
141
12.0
290
     0
  0
SCALE
  5
54
102
{ACAD_REACTORS
330
47
102
}
330
47
100
AcDbScale
 70
     0
300
1" = 1'-0"
140
1.0
141
12.0
290
     0
  0
SCALE
  5
55
102
{ACAD_REACTORS
330
47
102
}
330
47
100
AcDbScale
 70
     0
300
1-1/2" = 1'-0"
140
1.5
141
12.0
290
     0
  0
SCALE
  5
56
102
{ACAD_REACTORS
330
47
102
}
330
47
100
AcDbScale
 70
     0
300
3" = 1'-0"
140
3.0
141
12.0
290
     0
  0
SCALE
  5
57
102
{ACAD_REACTORS
330
47
102
}
330
47
100
AcDbScale
 70
     0
300
6" = 1'-0"
140
6.0
141
12.0
290
     0
  0
SCALE
  5
58
102
{ACAD_REACTORS
330
47
102
}
330
47
100
AcDbScale
 70
     0
300
1'-0" = 1'-0"
140
12.0
141
12.0
290
     0
  0
ACDBSECTIONVIEWSTYLE
  5
4FD
102
{ACAD_XDICTIONARY
360
EC5
102
}
102
{ACAD_REACTORS
330
4F9
102
}
330
4F9
100
AcDbModelDocViewStyle
 70
     0
  3
Imperial24
290
     0
100
AcDbSectionViewStyle
 70
     0
 71
     0
 90
       78
 71
     1
340
11
 62
   256
 40
0.24
340
0
340
0
 62
   256
 40
0.24
300
I, O, Q, S, X, Z
 40
0.48
 90
        3
 40
0.18
 90
        1
 71
     2
340
16
 90
       25
 62
   256
340
16
 90
       50
 62
   256
 40
0.24
 40
0.0
 40
0.24
 71
     3
340
11
 62
   256
 40
0.24
 90
        1
 40
0.75
 90
        1
300
%<\AcVar ViewType \f "%tc1">% %<\AcVar ViewSectionStartId>%-%<\AcVar ViewSectionEndId>%\PSCALE %<\AcVar ViewScale \f "%sn">%
 71
     4
 62
   256
 62
   257
300
ANSI31
 40
1.0
 90
        0
290
     0
290
     0
 90
        6
 40
0.0
 40
1.570796326794896
 40
0.2617993877991494
 40
1.308996938995747
 40
-0.2617993877991494
 40
1.832595714594044
  0
TABLESTYLE
  5
5A
102
{ACAD_XDICTIONARY
360
4F0
102
}
102
{ACAD_REACTORS
330
59
102
}
330
59
100
AcDbTableStyle
  3
Standard
 70
     0
 71
     0
 40
0.06
 41
0.06
280
     0
281
     0
  7
Standard
140
0.18
170
     2
 62
     0
 63
     7
283
     0
274
    -2
284
     1
 64
     0
275
    -2
285
     1
 65
     0
276
    -2
286
     1
 66
     0
277
    -2
287
     1
 67
     0
278
    -2
288
     1
 68
     0
279
    -2
289
     1
 69
     0
  7
Standard
140
0.25
170
     5
 62
     0
 63
     7
283
     0
274
    -2
284
     1
 64
     0
275
    -2
285
     1
 65
     0
276
    -2
286
     1
 66
     0
277
    -2
287
     1
 67
     0
278
    -2
288
     1
 68
     0
279
    -2
289
     1
 69
     0
  7
Standard
140
0.18
170
     5
 62
     0
 63
     7
283
     0
274
    -2
284
     1
 64
     0
275
    -2
285
     1
 65
     0
276
    -2
286
     1
 66
     0
277
    -2
287
     1
 67
     0
278
    -2
288
     1
 68
     0
279
    -2
289
     1
 69
     0
  0
VISUALSTYLE
  5
2F
102
{ACAD_XDICTIONARY
360
E9C
102
}
102
{ACAD_REACTORS
330
2A
102
}
330
2A
100
AcDbVisualStyle
  2

 70
     4
 71
     0
 72
     2
 73
     0
 90
        0
 40
-0.6
 41
-30.0
 62
     5
 63
     7
421
 16777215
 74
     1
 91
        4
 64
     7
 65
   257
 75
     1
175
     1
 42
1.0
 92
        0
 66
   257
 43
1.0
 76
     1
 77
     6
 78
     2
 67
     7
 79
     5
170
     0
171
     0
290
     0
174
     0
 93
        1
 44
0.0
173
     0
291
     0
 45
0.0
1001
ACAD
1000
AcDbSavedByObjectVersion
1070
     0
  0
VISUALSTYLE
  5
32
102
{ACAD_XDICTIONARY
360
EA2
102
}
102
{ACAD_REACTORS
330
2A
102
}
330
2A
100
AcDbVisualStyle
  2

 70
     7
 71
     1
 72
     0
 73
     1
 90
        0
 40
-0.6
 41
-30.0
 62
     5
 63
     7
421
 16777215
 74
     0
 91
        4
 64
     7
 65
   257
 75
     1
175
     1
 42
1.0
 92
        8
 66
     7
 43
1.0
 76
     1
 77
     6
 78
     2
 67
     7
 79
     5
170
     0
171
     0
290
     0
174
     0
 93
        1
 44
0.0
173
     0
291
     1
 45
0.0
1001
ACAD
1000
AcDbSavedByObjectVersion
1070
     0
  0
VISUALSTYLE
  5
36
102
{ACAD_XDICTIONARY
360
EAA
102
}
102
{ACAD_REACTORS
330
2A
102
}
330
2A
100
AcDbVisualStyle
  2

 70
    12
 71
     2
 72
     2
 73
     0
 90
        0
 40
-0.6
 41
-30.0
 62
     5
 63
     7
421
 16777215
 74
     1
 91
        4
 64
     7
 65
   257
 75
     1
175
     1
 42
1.0
 92
        8
 66
     7
 43
1.0
 76
     1
 77
     6
 78
     2
 67
     7
 79
     5
170
     0
171
     0
290
     0
174
     0
 93
        1
 44
50.0
173
     0
291
     1
 45
0.0
1001
ACAD
1000
AcDbSavedByObjectVersion
1070
     0
  0
VISUALSTYLE
  5
3A
102
{ACAD_XDICTIONARY
360
EB2
102
}
102
{ACAD_REACTORS
330
2A
102
}
330
2A
100
AcDbVisualStyle
  2

 70
    16
 71
     2
 72
     2
 73
     3
 90
        0
 40
-0.6
 41
-30.0
 62
     5
 63
     8
421
  8421504
 74
     1
 91
        4
 64
     7
 65
   257
 75
     1
175
     1
 42
1.0
 92
        8
 66
     8
424
  8421504
 43
1.0
 76
     1
 77
     6
 78
     2
 67
     7
 79
     5
170
     0
171
     0
290
     0
174
     0
 93
        1
 44
0.0
173
     0
291
     1
 45
0.0
1001
ACAD
1000
AcDbSavedByObjectVersion
1070
     0
  0
VISUALSTYLE
  5
34
102
{ACAD_XDICTIONARY
360
EA6
102
}
102
{ACAD_REACTORS
330
2A
102
}
330
2A
100
AcDbVisualStyle
  2

 70
     9
 71
     3
 72
     2
 73
     0
 90
        0
 40
-0.6
 41
-30.0
 62
     5
 63
     7
421
 16777215
 74
     2
 91
        2
 64
     7
 65
   257
 75
     1
175
     1
 42
179.0
 92
        8
 66
     7
 43
1.0
 76
     1
 77
     6
 78
     2
 67
     7
 79
     3
170
     0
171
     0
290
     0
174
     0
 93
        1
 44
0.0
173
     0
291
     0
 45
0.0
1001
ACAD
1000
AcDbSavedByObjectVersion
1070
     0
  0
VISUALSTYLE
  5
35
102
{ACAD_XDICTIONARY
360
EA8
102
}
102
{ACAD_REACTORS
330
2A
102
}
330
2A
100
AcDbVisualStyle
  2

 70
    11
 71
     2
 72
     2
 73
     0
 90
        0
 40
-0.6
 41
-30.0
 62
     5
 63
     7
421
 16777215
 74
     1
 91
        4
 64
     7
 65
   257
 75
     1
175
     1
 42
1.0
 92
        8
 66
     7
 43
1.0
 76
     1
 77
     6
 78
     2
 67
     7
 79
     5
170
     0
171
     0
290
     0
174
     0
 93
        1
 44
-50.0
173
     0
291
     1
 45
0.0
1001
ACAD
1000
AcDbSavedByObjectVersion
1070
     0
  0
VISUALSTYLE
  5
3D
102
{ACAD_XDICTIONARY
360
EB8
102
}
102
{ACAD_REACTORS
330
2A
102
}
330
2A
100
AcDbVisualStyle
  2

 70
    22
 71
     2
 72
     2
 73
     0
 90
        0
 40
-0.6
 41
-30.0
 62
     5
 63
     7
421
 16777215
 74
     1
 91
        4
 64
     7
 65
   257
 75
     1
175
     1
 42
1.0
 92
        8
 66
     7
 43
1.0
 76
     1
 77
     6
 78
     2
 67
     7
 79
     5
170
     0
171
     0
290
     0
174
     0
 93
        1
 44
0.0
173
     0
291
     1
 45
0.0
1001
ACAD
1000
AcDbSavedByObjectVersion
1070
     0
  0
VISUALSTYLE
  5
39
102
{ACAD_XDICTIONARY
360
EB0
102
}
102
{ACAD_REACTORS
330
2A
102
}
330
2A
100
AcDbVisualStyle
  2

 70
    15
 71
     2
 72
     2
 73
     0
 90
        0
 40
-0.6
 41
-30.0
 62
     5
 63
     7
421
 16777215
 74
     1
 91
        4
 64
     7
 65
   257
 75
     1
175
     1
 42
1.0
 92
        8
 66
     7
 43
1.0
 76
     1
 77
     6
 78
     2
 67
     7
 79
     5
170
     0
171
     0
290
     0
174
     0
 93
        1
 44
0.0
173
     0
291
     1
 45
0.0
1001
ACAD
1000
AcDbSavedByObjectVersion
1070
     0
  0
VISUALSTYLE
  5
2B
102
{ACAD_XDICTIONARY
360
E94
102
}
102
{ACAD_REACTORS
330
2A
102
}
330
2A
100
AcDbVisualStyle
  2

 70
     0
 71
     2
 72
     1
 73
     1
 90
        2
 40
-0.6
 41
30.0
 62
     5
 63
     7
421
 16777215
 74
     0
 91
        0
 64
     7
 65
   257
 75
     1
175
     1
 42
1.0
 92
        8
 66
     7
 43
1.0
 76
     1
 77
     6
 78
     2
 67
     7
 79
     5
170
     0
171
     0
290
     0
174
     0
 93
       13
 44
0.0
173
     0
291
     1
 45
0.0
1001
ACAD
1000
AcDbSavedByObjectVersion
1070
     0
  0
VISUALSTYLE
  5
2C
102
{ACAD_XDICTIONARY
360
E96
102
}
102
{ACAD_REACTORS
330
2A
102
}
330
2A
100
AcDbVisualStyle
  2

 70
     1
 71
     2
 72
     1
 73
     1
 90
        2
 40
-0.6
 41
30.0
 62
     5
 63
     7
421
 16777215
 74
     1
 91
        0
 64
     7
 65
   257
 75
     1
175
     1
 42
1.0
 92
        0
 66
   257
 43
1.0
 76
     1
 77
     6
 78
     2
 67
     7
 79
     5
170
     0
171
     0
290
     0
174
     0
 93
       13
 44
0.0
173
     0
291
     1
 45
0.0
1001
ACAD
1000
AcDbSavedByObjectVersion
1070
     0
  0
VISUALSTYLE
  5
2D
102
{ACAD_XDICTIONARY
360
E98
102
}
102
{ACAD_REACTORS
330
2A
102
}
330
2A
100
AcDbVisualStyle
  2

 70
     2
 71
     2
 72
     2
 73
     1
 90
        2
 40
-0.6
 41
30.0
 62
     5
 63
     7
421
 16777215
 74
     0
 91
        0
 64
     7
 65
   257
 75
     1
175
     1
 42
1.0
 92
        0
 66
     7
 43
1.0
 76
     1
 77
     6
 78
     2
 67
     7
 79
     5
170
     0
171
     0
290
     0
174
     0
 93
       13
 44
0.0
173
     0
291
     1
 45
0.0
1001
ACAD
1000
AcDbSavedByObjectVersion
1070
     0
  0
VISUALSTYLE
  5
2E
102
{ACAD_XDICTIONARY
360
E9A
102
}
102
{ACAD_REACTORS
330
2A
102
}
330
2A
100
AcDbVisualStyle
  2

 70
     3
 71
     2
 72
     2
 73
     1
 90
        2
 40
-0.6
 41
30.0
 62
     5
 63
     7
421
 16777215
 74
     1
 91
        0
 64
     7
 65
   257
 75
     1
175
     1
 42
1.0
 92
        0
 66
   257
 43
1.0
 76
     1
 77
     6
 78
     2
 67
     7
 79
     5
170
     0
171
     0
290
     0
174
     0
 93
       13
 44
0.0
173
     0
291
     1
 45
0.0
1001
ACAD
1000
AcDbSavedByObjectVersion
1070
     0
  0
VISUALSTYLE
  5
31
102
{ACAD_XDICTIONARY
360
EA0
102
}
102
{ACAD_REACTORS
330
2A
102
}
330
2A
100
AcDbVisualStyle
  2

 70
     6
 71
     1
 72
     2
 73
     2
 90
        0
 40
-0.6
 41
-30.0
 62
     5
 63
     7
421
 16777215
 74
     2
 91
        2
 64
     7
 65
   257
 75
     2
175
     1
 42
40.0
 92
        0
 66
   257
 43
1.0
 76
     1
 77
     6
 78
     2
 67
     7
 79
     3
170
     0
171
     0
290
     0
174
     0
 93
        1
 44
0.0
173
     0
291
     0
 45
0.0
1001
ACAD
1000
AcDbSavedByObjectVersion
1070
     0
  0
VISUALSTYLE
  5
3B
102
{ACAD_XDICTIONARY
360
EB4
102
}
102
{ACAD_REACTORS
330
2A
102
}
330
2A
100
AcDbVisualStyle
  2

 70
    20
 71
     2
 72
     2
 73
     0
 90
        0
 40
-0.6
 41
-30.0
 62
     5
 63
     7
421
 16777215
 74
     1
 91
        4
 64
     7
 65
   257
 75
     1
175
     1
 42
1.0
 92
       10
 66
     7
 43
1.0
 76
     1
 77
     6
 78
     2
 67
     7
 79
     5
170
     0
171
     0
290
     0
174
     0
 93
        1
 44
0.0
173
     0
291
     1
 45
0.0
1001
ACAD
1000
AcDbSavedByObjectVersion
1070
     0
  0
VISUALSTYLE
  5
38
102
{ACAD_XDICTIONARY
360
EAE
102
}
102
{ACAD_REACTORS
330
2A
102
}
330
2A
100
AcDbVisualStyle
  2

 70
    14
 71
     2
 72
     2
 73
     0
 90
        0
 40
-0.6
 41
-30.0
 62
     5
 63
     7
421
 16777215
 74
     1
 91
        4
 64
     7
 65
   257
 75
     7
175
     7
 42
1.0
 92
        8
 66
     7
 43
1.0
 76
     1
 77
     6
 78
     2
 67
     7
 79
     5
170
     0
171
     0
290
     0
174
     0
 93
        1
 44
0.0
173
     0
291
     1
 45
0.0
1001
ACAD
1000
AcDbSavedByObjectVersion
1070
     0
  0
VISUALSTYLE
  5
3C
102
{ACAD_XDICTIONARY
360
EB6
102
}
102
{ACAD_REACTORS
330
2A
102
}
330
2A
100
AcDbVisualStyle
  2

 70
    21
 71
     2
 72
     2
 73
     0
 90
        0
 40
-0.6
 41
-30.0
 62
     5
 63
     7
421
 16777215
 74
     1
 91
        4
 64
     7
 65
   257
 75
     1
175
     1
 42
1.0
 92
        9
 66
     7
 43
1.0
 76
     1
 77
     6
 78
     2
 67
     7
 79
     5
170
     0
171
     0
290
     0
174
     0
 93
        1
 44
0.0
173
     0
291
     1
 45
0.0
1001
ACAD
1000
AcDbSavedByObjectVersion
1070
     0
  0
VISUALSTYLE
  5
33
102
{ACAD_XDICTIONARY
360
EA4
102
}
102
{ACAD_REACTORS
330
2A
102
}
330
2A
100
AcDbVisualStyle
  2

 70
     8
 71
     2
 72
     3
 73
     0
 90
        2
 40
-0.6
 41
30.0
 62
     5
 63
     7
421
 16777215
 74
     0
 91
        0
 64
     7
 65
   257
 75
     1
175
     1
 42
1.0
 92
        8
 66
   257
 43
1.0
 76
     1
 77
     6
 78
     2
 67
     7
 79
     3
170
     0
171
     0
290
     0
174
     0
 93
       13
 44
0.0
173
     0
291
     0
 45
0.0
1001
ACAD
1000
AcDbSavedByObjectVersion
1070
     0
  0
VISUALSTYLE
  5
42
102
{ACAD_XDICTIONARY
360
EC2
102
}
102
{ACAD_REACTORS
330
2A
102
}
330
2A
100
AcDbVisualStyle
  2

 70
    27
 71
     2
 72
     2
 73
     1
 90
        2
 40
-0.6
 41
30.0
 62
     5
 63
     7
421
 16777215
 74
     0
 91
        4
 64
     7
 65
   257
 75
     1
175
     1
 42
1.0
 92
        8
 66
   257
 43
1.0
 76
     1
 77
     6
 78
     2
 67
     8
425
  7895160
 79
     3
170
     0
171
     0
290
     0
174
     0
 93
        5
 44
0.0
173
     0
291
     0
 45
0.0
1001
ACAD
1000
AcDbSavedByObjectVersion
1070
     0
  0
VISUALSTYLE
  5
41
102
{ACAD_XDICTIONARY
360
EC0
102
}
102
{ACAD_REACTORS
330
2A
102
}
330
2A
100
AcDbVisualStyle
  2

 70
    26
 71
     2
 72
     2
 73
     1
 90
        2
 40
-0.6
 41
30.0
 62
     5
 63
     7
421
 16777215
 74
     1
 91
       10
 64
     7
 65
   257
 75
     2
175
     1
 42
1.0
 92
        8
 66
   257
 43
1.0
 76
     1
 77
     6
 78
     2
 67
     7
 79
     3
170
     0
171
     0
290
     0
174
     0
 93
        5
 44
0.0
173
     0
291
     0
 45
0.0
1001
ACAD
1000
AcDbSavedByObjectVersion
1070
     0
  0
VISUALSTYLE
  5
3E
102
{ACAD_XDICTIONARY
360
EBA
102
}
102
{ACAD_REACTORS
330
2A
102
}
330
2A
100
AcDbVisualStyle
  2

 70
    23
 71
     2
 72
     2
 73
     3
 90
        0
 40
-0.6
 41
-30.0
 62
     5
 63
     7
421
 16777215
 74
     2
 91
        2
 64
     7
 65
     7
 75
     1
175
     1
 42
40.0
 92
        8
 66
     7
 43
1.0
 76
     1
 77
     6
 78
     2
 67
     7
 79
     3
170
     0
171
     0
290
     0
174
     0
 93
        1
 44
0.0
173
     0
291
     0
 45
0.0
1001
ACAD
1000
AcDbSavedByObjectVersion
1070
     0
  0
VISUALSTYLE
  5
3F
102
{ACAD_XDICTIONARY
360
EBC
102
}
102
{ACAD_REACTORS
330
2A
102
}
330
2A
100
AcDbVisualStyle
  2

 70
    24
 71
     1
 72
     2
 73
     2
 90
        0
 40
-0.6
 41
-30.0
 62
     5
 63
     7
421
 16777215
 74
     2
 91
        2
 64
     7
 65
     7
 75
     1
175
     1
 42
40.0
 92
       11
 66
     7
 43
1.0
 76
     1
 77
     6
 78
     2
 67
     7
 79
     6
170
     0
171
     0
290
     0
174
     0
 93
        1
 44
0.0
173
     0
291
     0
 45
0.0
1001
ACAD
1000
AcDbSavedByObjectVersion
1070
     0
  0
VISUALSTYLE
  5
37
102
{ACAD_XDICTIONARY
360
EAC
102
}
102
{ACAD_REACTORS
330
2A
102
}
330
2A
100
AcDbVisualStyle
  2

 70
    13
 71
     2
 72
     2
 73
     0
 90
        0
 40
-0.6
 41
-30.0
 62
     5
 63
     7
421
 16777215
 74
     1
 91
        4
 64
     7
 65
   257
 75
     1
175
     1
 42
1.0
 92
       12
 66
     7
 43
1.0
 76
     1
 77
     6
 78
     2
 67
     7
 79
     5
170
     0
171
     0
290
     0
174
     0
 93
        1
 44
0.0
173
     0
291
     1
 45
0.0
1001
ACAD
1000
AcDbSavedByObjectVersion
1070
     0
  0
VISUALSTYLE
  5
30
102
{ACAD_XDICTIONARY
360
E9E
102
}
102
{ACAD_REACTORS
330
2A
102
}
330
2A
100
AcDbVisualStyle
  2

 70
     5
 71
     0
 72
     2
 73
     0
 90
        0
 40
-0.6
 41
-30.0
 62
     5
 63
     7
421
 16777215
 74
     1
 91
        4
 64
     7
 65
   257
 75
     1
175
     1
 42
1.0
 92
        0
 66
   257
 43
1.0
 76
     1
 77
     6
 78
     2
 67
     7
 79
     3
170
     0
171
     0
290
     0
174
     0
 93
        1
 44
0.0
173
     0
291
     0
 45
0.0
1001
ACAD
1000
AcDbSavedByObjectVersion
1070
     0
  0
VISUALSTYLE
  5
40
102
{ACAD_XDICTIONARY
360
EBE
102
}
102
{ACAD_REACTORS
330
2A
102
}
330
2A
100
AcDbVisualStyle
  2

 70
    25
 71
     2
 72
     2
 73
     1
 90
        1
 40
0.5
 41
-30.0
 62
     5
 63
     7
421
 16777215
 74
     1
 91
        0
 64
     7
 65
   257
 75
     1
175
     1
 42
1.0
 92
        8
 66
     7
 43
1.0
 76
     1
 77
     6
 78
     2
 67
     7
 79
     3
170
     0
171
     0
290
     0
174
     0
 93
       13
 44
0.0
173
     0
291
     0
 45
0.0
1001
ACAD
1000
AcDbSavedByObjectVersion
1070
     0
  0
DICTIONARYVAR
  5
4BE
102
{ACAD_REACTORS
330
4BD
102
}
330
4BD
100
DictionaryVariables
280
     0
  1
1:1
  0
DICTIONARYVAR
  5
4F7
102
{ACAD_REACTORS
330
4BD
102
}
330
4BD
100
DictionaryVariables
280
     0
  1
STANDARD
  0
DICTIONARYVAR
  5
4F6
102
{ACAD_REACTORS
330
4BD
102
}
330
4BD
100
DictionaryVariables
280
     0
  1
STANDARD
  0
DICTIONARYVAR
  5
506
102
{ACAD_REACTORS
330
4BD
102
}
330
4BD
100
DictionaryVariables
280
     0
  1
Imperial24
  0
DICTIONARYVAR
  5
507
102
{ACAD_REACTORS
330
4BD
102
}
330
4BD
100
DictionaryVariables
280
     0
  1
Imperial24
  0
DICTIONARYVAR
  5
50A
102
{ACAD_REACTORS
330
4BD
102
}
330
4BD
100
DictionaryVariables
280
     0
  1
2
  0
DICTIONARYVAR
  5
509
102
{ACAD_REACTORS
330
4BD
102
}
330
4BD
100
DictionaryVariables
280
     0
  1
2
  0
DICTIONARYVAR
  5
E8D
102
{ACAD_REACTORS
330
4BD
102
}
330
4BD
100
DictionaryVariables
280
     0
  1
1.570796
  0
DICTIONARYVAR
  5
E8E
102
{ACAD_REACTORS
330
4BD
102
}
330
4BD
100
DictionaryVariables
280
     0
  1
1.570796
  0
DICTIONARYVAR
  5
508
102
{ACAD_REACTORS
330
4BD
102
}
330
4BD
100
DictionaryVariables
280
     0
  1
1
  0
DICTIONARYVAR
  5
E8F
102
{ACAD_REACTORS
330
4BD
102
}
330
4BD
100
DictionaryVariables
280
     0
  1
2
  0
DICTIONARY
  5
EC7
330
4FE
100
AcDbDictionary
280
     1
281
     1
  3
ACAD_XREC_ROUNDTRIP
360
EC8
  0
DICTIONARY
  5
546
330
45
100
AcDbDictionary
280
     1
281
     1
  3
ACAD_XREC_ROUNDTRIP
360
547
  0
DICTIONARY
  5
544
330
44
100
AcDbDictionary
280
     1
281
     1
  3
ACAD_XREC_ROUNDTRIP
360
545
  0
DICTIONARY
  5
548
330
46
100
AcDbDictionary
280
     1
281
     1
  3
ACAD_XREC_ROUNDTRIP
360
549
  0
DICTIONARY
  5
EC5
330
4FD
100
AcDbDictionary
280
     1
281
     1
  3
ACAD_XREC_ROUNDTRIP
360
EC6
  0
DICTIONARY
  5
4F0
330
5A
100
AcDbDictionary
280
     1
281
     1
  3
ACAD_ROUNDTRIP_2008_TABLESTYLE_CELLSTYLEMAP
360
E90
  3
ACAD_XREC_ROUNDTRIP
360
EC4
  0
DICTIONARY
  5
E9C
330
2F
100
AcDbDictionary
280
     1
281
     1
  3
ACAD_XREC_ROUNDTRIP
360
E9D
  0
DICTIONARY
  5
EA2
330
32
100
AcDbDictionary
280
     1
281
     1
  3
ACAD_XREC_ROUNDTRIP
360
EA3
  0
DICTIONARY
  5
EAA
330
36
100
AcDbDictionary
280
     1
281
     1
  3
ACAD_XREC_ROUNDTRIP
360
EAB
  0
DICTIONARY
  5
EB2
330
3A
100
AcDbDictionary
280
     1
281
     1
  3
ACAD_XREC_ROUNDTRIP
360
EB3
  0
DICTIONARY
  5
EA6
330
34
100
AcDbDictionary
280
     1
281
     1
  3
ACAD_XREC_ROUNDTRIP
360
EA7
  0
DICTIONARY
  5
EA8
330
35
100
AcDbDictionary
280
     1
281
     1
  3
ACAD_XREC_ROUNDTRIP
360
EA9
  0
DICTIONARY
  5
EB8
330
3D
100
AcDbDictionary
280
     1
281
     1
  3
ACAD_XREC_ROUNDTRIP
360
EB9
  0
DICTIONARY
  5
EB0
330
39
100
AcDbDictionary
280
     1
281
     1
  3
ACAD_XREC_ROUNDTRIP
360
EB1
  0
DICTIONARY
  5
E94
330
2B
100
AcDbDictionary
280
     1
281
     1
  3
ACAD_XREC_ROUNDTRIP
360
E95
  0
DICTIONARY
  5
E96
330
2C
100
AcDbDictionary
280
     1
281
     1
  3
ACAD_XREC_ROUNDTRIP
360
E97
  0
DICTIONARY
  5
E98
330
2D
100
AcDbDictionary
280
     1
281
     1
  3
ACAD_XREC_ROUNDTRIP
360
E99
  0
DICTIONARY
  5
E9A
330
2E
100
AcDbDictionary
280
     1
281
     1
  3
ACAD_XREC_ROUNDTRIP
360
E9B
  0
DICTIONARY
  5
EA0
330
31
100
AcDbDictionary
280
     1
281
     1
  3
ACAD_XREC_ROUNDTRIP
360
EA1
  0
DICTIONARY
  5
EB4
330
3B
100
AcDbDictionary
280
     1
281
     1
  3
ACAD_XREC_ROUNDTRIP
360
EB5
  0
DICTIONARY
  5
EAE
330
38
100
AcDbDictionary
280
     1
281
     1
  3
ACAD_XREC_ROUNDTRIP
360
EAF
  0
DICTIONARY
  5
EB6
330
3C
100
AcDbDictionary
280
     1
281
     1
  3
ACAD_XREC_ROUNDTRIP
360
EB7
  0
DICTIONARY
  5
EA4
330
33
100
AcDbDictionary
280
     1
281
     1
  3
ACAD_XREC_ROUNDTRIP
360
EA5
  0
DICTIONARY
  5
EC2
330
42
100
AcDbDictionary
280
     1
281
     1
  3
ACAD_XREC_ROUNDTRIP
360
EC3
  0
DICTIONARY
  5
EC0
330
41
100
AcDbDictionary
280
     1
281
     1
  3
ACAD_XREC_ROUNDTRIP
360
EC1
  0
DICTIONARY
  5
EBA
330
3E
100
AcDbDictionary
280
     1
281
     1
  3
ACAD_XREC_ROUNDTRIP
360
EBB
  0
DICTIONARY
  5
EBC
330
3F
100
AcDbDictionary
280
     1
281
     1
  3
ACAD_XREC_ROUNDTRIP
360
EBD
  0
DICTIONARY
  5
EAC
330
37
100
AcDbDictionary
280
     1
281
     1
  3
ACAD_XREC_ROUNDTRIP
360
EAD
  0
DICTIONARY
  5
E9E
330
30
100
AcDbDictionary
280
     1
281
     1
  3
ACAD_XREC_ROUNDTRIP
360
E9F
  0
DICTIONARY
  5
EBE
330
40
100
AcDbDictionary
280
     1
281
     1
  3
ACAD_XREC_ROUNDTRIP
360
EBF
  0
XRECORD
  5
EC8
102
{ACAD_REACTORS
330
EC7
102
}
330
EC7
100
AcDbXrecord
280
     1
102
DISPLAYNAME
  1
Imperial24
102
FLAGS
 90
        0
  0
XRECORD
  5
547
102
{ACAD_REACTORS
330
546
102
}
330
546
100
AcDbXrecord
280
     1
102
MATERIAL
148
0.0
149
0.0
149
0.0
 93
        0
 94
      127
282
     0
 72
     1
 77
     1
171
     1
175
     1
179
     1
273
     0
  0
XRECORD
  5
545
102
{ACAD_REACTORS
330
544
102
}
330
544
100
AcDbXrecord
280
     1
102
MATERIAL
148
0.0
149
0.0
149
0.0
 93
        0
 94
      127
282
     0
 72
     1
 77
     1
171
     1
175
     1
179
     1
273
     0
  0
XRECORD
  5
549
102
{ACAD_REACTORS
330
548
102
}
330
548
100
AcDbXrecord
280
     1
102
MATERIAL
148
0.0
149
0.0
149
0.0
 93
        0
 94
      127
282
     0
 72
     1
 77
     1
171
     1
175
     1
179
     1
273
     0
  0
XRECORD
  5
EC6
102
{ACAD_REACTORS
330
EC5
102
}
330
EC5
100
AcDbXrecord
280
     1
102
DISPLAYNAME
  1
Imperial24
102
FLAGS
 90
        0
  0
CELLSTYLEMAP
  5
E90
102
{ACAD_REACTORS
330
4F0
102
}
330
4F0
100
AcDbCellStyleMap
 90
        3
300
CELLSTYLE
  1
TABLEFORMAT_BEGIN
 90
        5
170
     1
 91
        0
 92
    32768
 62
   257
 93
        1
300
CONTENTFORMAT
  1
CONTENTFORMAT_BEGIN
 90
        0
 91
        0
 92
        4
 93
        0
300

 40
0.0
140
1.0
 94
        5
 62
     0
340
11
144
0.25
309
CONTENTFORMAT_END
171
     1
301
MARGIN
  1
CELLMARGIN_BEGIN
 40
0.06
 40
0.06
 40
0.06
 40
0.06
 40
0.18
 40
0.18
309
CELLMARGIN_END
 94
        6
 95
        1
302
GRIDFORMAT
  1
GRIDFORMAT_BEGIN
 90
        0
 91
        1
 62
     0
 92
       -2
340
14
 93
        0
 40
0.045
309
GRIDFORMAT_END
 95
        2
302
GRIDFORMAT
  1
GRIDFORMAT_BEGIN
 90
        0
 91
        1
 62
     0
 92
       -2
340
14
 93
        0
 40
0.045
309
GRIDFORMAT_END
 95
        4
302
GRIDFORMAT
  1
GRIDFORMAT_BEGIN
 90
        0
 91
        1
 62
     0
 92
       -2
340
14
 93
        0
 40
0.045
309
GRIDFORMAT_END
 95
        8
302
GRIDFORMAT
  1
GRIDFORMAT_BEGIN
 90
        0
 91
        1
 62
     0
 92
       -2
340
14
 93
        0
 40
0.045
309
GRIDFORMAT_END
 95
       16
302
GRIDFORMAT
  1
GRIDFORMAT_BEGIN
 90
        0
 91
        1
 62
     0
 92
       -2
340
14
 93
        0
 40
0.045
309
GRIDFORMAT_END
 95
       32
302
GRIDFORMAT
  1
GRIDFORMAT_BEGIN
 90
        0
 91
        1
 62
     0
 92
       -2
340
14
 93
        0
 40
0.045
309
GRIDFORMAT_END
309
TABLEFORMAT_END
  1
CELLSTYLE_BEGIN
 90
        1
 91
        1
300
_TITLE
309
CELLSTYLE_END
300
CELLSTYLE
  1
TABLEFORMAT_BEGIN
 90
        5
170
     1
 91
        0
 92
        0
 62
   257
 93
        1
300
CONTENTFORMAT
  1
CONTENTFORMAT_BEGIN
 90
        0
 91
        0
 92
        4
 93
        0
300

 40
0.0
140
1.0
 94
        5
 62
     0
340
11
144
0.18
309
CONTENTFORMAT_END
171
     1
301
MARGIN
  1
CELLMARGIN_BEGIN
 40
0.06
 40
0.06
 40
0.06
 40
0.06
 40
0.18
 40
0.18
309
CELLMARGIN_END
 94
        6
 95
        1
302
GRIDFORMAT
  1
GRIDFORMAT_BEGIN
 90
        0
 91
        1
 62
     0
 92
       -2
340
14
 93
        0
 40
0.045
309
GRIDFORMAT_END
 95
        2
302
GRIDFORMAT
  1
GRIDFORMAT_BEGIN
 90
        0
 91
        1
 62
     0
 92
       -2
340
14
 93
        0
 40
0.045
309
GRIDFORMAT_END
 95
        4
302
GRIDFORMAT
  1
GRIDFORMAT_BEGIN
 90
        0
 91
        1
 62
     0
 92
       -2
340
14
 93
        0
 40
0.045
309
GRIDFORMAT_END
 95
        8
302
GRIDFORMAT
  1
GRIDFORMAT_BEGIN
 90
        0
 91
        1
 62
     0
 92
       -2
340
14
 93
        0
 40
0.045
309
GRIDFORMAT_END
 95
       16
302
GRIDFORMAT
  1
GRIDFORMAT_BEGIN
 90
        0
 91
        1
 62
     0
 92
       -2
340
14
 93
        0
 40
0.045
309
GRIDFORMAT_END
 95
       32
302
GRIDFORMAT
  1
GRIDFORMAT_BEGIN
 90
        0
 91
        1
 62
     0
 92
       -2
340
14
 93
        0
 40
0.045
309
GRIDFORMAT_END
309
TABLEFORMAT_END
  1
CELLSTYLE_BEGIN
 90
        2
 91
        1
300
_HEADER
309
CELLSTYLE_END
300
CELLSTYLE
  1
TABLEFORMAT_BEGIN
 90
        5
170
     1
 91
        0
 92
        0
 62
   257
 93
        1
300
CONTENTFORMAT
  1
CONTENTFORMAT_BEGIN
 90
        0
 91
        0
 92
        4
 93
        0
300

 40
0.0
140
1.0
 94
        2
 62
     0
340
11
144
0.18
309
CONTENTFORMAT_END
171
     1
301
MARGIN
  1
CELLMARGIN_BEGIN
 40
0.06
 40
0.06
 40
0.06
 40
0.06
 40
0.18
 40
0.18
309
CELLMARGIN_END
 94
        6
 95
        1
302
GRIDFORMAT
  1
GRIDFORMAT_BEGIN
 90
        0
 91
        1
 62
     0
 92
       -2
340
14
 93
        0
 40
0.045
309
GRIDFORMAT_END
 95
        2
302
GRIDFORMAT
  1
GRIDFORMAT_BEGIN
 90
        0
 91
        1
 62
     0
 92
       -2
340
14
 93
        0
 40
0.045
309
GRIDFORMAT_END
 95
        4
302
GRIDFORMAT
  1
GRIDFORMAT_BEGIN
 90
        0
 91
        1
 62
     0
 92
       -2
340
14
 93
        0
 40
0.045
309
GRIDFORMAT_END
 95
        8
302
GRIDFORMAT
  1
GRIDFORMAT_BEGIN
 90
        0
 91
        1
 62
     0
 92
       -2
340
14
 93
        0
 40
0.045
309
GRIDFORMAT_END
 95
       16
302
GRIDFORMAT
  1
GRIDFORMAT_BEGIN
 90
        0
 91
        1
 62
     0
 92
       -2
340
14
 93
        0
 40
0.045
309
GRIDFORMAT_END
 95
       32
302
GRIDFORMAT
  1
GRIDFORMAT_BEGIN
 90
        0
 91
        1
 62
     0
 92
       -2
340
14
 93
        0
 40
0.045
309
GRIDFORMAT_END
309
TABLEFORMAT_END
  1
CELLSTYLE_BEGIN
 90
        3
 91
        2
300
_DATA
309
CELLSTYLE_END
  0
XRECORD
  5
EC4
102
{ACAD_REACTORS
330
4F0
102
}
330
4F0
100
AcDbXrecord
280
     1
102
ACAD_ROUNDTRIP_PRE2007_TABLESTYLE
 90
        4
 91
        0
  1

 92
        4
 93
        0
  2

 94
        4
 95
        0
  3

  0
XRECORD
  5
E9D
102
{ACAD_REACTORS
330
E9C
102
}
330
E9C
100
AcDbXrecord
280
     1
102
RTVSPost2010Prop28
280
     1
102
RTVSPost2010PropOp28
 70
     1
102
RTVSPost2010Prop29
280
     1
102
RTVSPost2010PropOp29
 70
     1
102
RTVSPost2010Prop30
280
     0
102
RTVSPost2010PropOp30
 70
     1
102
RTVSPost2010Prop31
280
     0
102
RTVSPost2010PropOp31
 70
     1
102
RTVSPost2010Prop32
280
     0
102
RTVSPost2010PropOp32
 70
     1
102
RTVSPost2010Prop33
280
     0
102
RTVSPost2010PropOp33
 70
     1
102
RTVSPost2010Prop34
280
     0
102
RTVSPost2010PropOp34
 70
     1
102
RTVSPost2010Prop35
280
     0
102
RTVSPost2010PropOp35
 70
     1
102
RTVSPost2010Prop36
280
     0
102
RTVSPost2010PropOp36
 70
     1
102
RTVSPost2010Prop37
 90
       50
102
RTVSPost2010PropOp37
 70
     1
102
RTVSPost2010Prop38
140
0.0
102
RTVSPost2010PropOp38
 70
     1
102
RTVSPost2010Prop39
140
1.0
102
RTVSPost2010PropOp39
 70
     1
102
RTVSPost2010Prop40
 90
        0
102
RTVSPost2010PropOp40
 70
     1
102
RTVSPost2010Prop41ColorIndex
 90
       18
102
RTVSPost2010Prop41ColorRGB
 90
        0
102
RTVSPost2010PropOp41
 70
     1
102
RTVSPost2010Prop42
 90
       50
102
RTVSPost2010PropOp42
 70
     1
102
RTVSPost2010Prop43
 90
        3
102
RTVSPost2010PropOp43
 70
     1
102
RTVSPost2010Prop44ColorIndex
 90
        5
102
RTVSPost2010Prop44ColorRGB
 90
      255
102
RTVSPost2010PropOp44
 70
     1
102
RTVSPost2010Prop45
280
     0
102
RTVSPost2010PropOp45
 70
     1
102
RTVSPost2010Prop46
 90
       50
102
RTVSPost2010PropOp46
 70
     1
102
RTVSPost2010Prop47
 90
       50
102
RTVSPost2010PropOp47
 70
     1
102
RTVSPost2010Prop48
 90
       50
102
RTVSPost2010PropOp48
 70
     1
102
RTVSPost2010Prop49
280
     0
102
RTVSPost2010PropOp49
 70
     1
102
RTVSPost2010Prop50
 90
       50
102
RTVSPost2010PropOp50
 70
     1
102
RTVSPost2010Prop51ColorIndex
 90
      256
102
RTVSPost2010Prop51ColorRGB
 90
-16777216
102
RTVSPost2010PropOp51
 70
     0
102
RTVSPost2010Prop52
140
1.0
102
RTVSPost2010PropOp52
 70
     0
102
RTVSPost2010Prop53
 90
        2
102
RTVSPost2010PropOp53
 70
     1
102
RTVSPost2010Prop54
  1
strokes_ogs.tif
102
RTVSPost2010PropOp54
 70
     1
102
RTVSPost2010Prop55
280
     0
102
RTVSPost2010PropOp55
 70
     1
102
RTVSPost2010Prop56
140
1.0
102
RTVSPost2010PropOp56
 70
     1
102
RTVSPost2010Prop57
140
1.0
102
RTVSPost2010PropOp57
 70
     1
102
RTVSPropertyOp0
 70
     1
102
RTVSPropertyOp1
 70
     1
102
RTVSPropertyOp2
 70
     1
102
RTVSPropertyOp3
 70
     1
102
RTVSPropertyOp4
 70
     1
102
RTVSPropertyOp5
 70
     1
102
RTVSPropertyOp6
 70
     1
102
RTVSPropertyOp7
 70
     1
102
RTVSPropertyOp8
 70
     1
102
RTVSPropertyOp9
 70
     1
102
RTVSPropertyOp10
 70
     1
102
RTVSPropertyOp11
 70
     1
102
RTVSPropertyOp12
 70
     1
102
RTVSPropertyOp13
 70
     1
102
RTVSPropertyOp14
 70
     1
102
RTVSPropertyOp15
 70
     1
102
RTVSPropertyOp16
 70
     1
102
RTVSPropertyOp17
 70
     1
102
RTVSPropertyOp18
 70
     1
102
RTVSPropertyOp19
 70
     1
102
RTVSPropertyOp20
 70
     1
102
RTVSPropertyOp21
 70
     1
102
RTVSPropertyOp22
 70
     1
102
RTVSPropertyOp23
 70
     1
102
RTVSPropertyOp24
 70
     1
102
RTVSPropertyOp25
 70
     1
102
RTVSPropertyOp26
 70
     1
102
RTVSPropertyOp27
 70
     1
102
RTVSPropertyOp28
 70
     1
102
RTVSPropertyOp29
 70
     1
102
RTVSPropertyOp30
 70
     1
102
RTVSPropertyOp31
 70
     1
102
RTVSPropertyOp32
 70
     1
102
RTVSPropertyOp33
 70
     1
102
RTVSPropertyOp34
 70
     1
102
RTVSPropertyOp35
 70
     1
102
RTVSPropertyOp36
 70
     1
102
RTVSPropertyOp37
 70
     1
102
RTVSPropertyOp38
 70
     1
102
RTVSPropertyOp39
 70
     1
102
RTVSPropertyOp40
 70
     1
102
RTVSPropertyOp41
 70
     1
102
RTVSPropertyOp42
 70
     1
102
RTVSPropertyOp43
 70
     1
102
RTVSPropertyOp44
 70
     1
102
RTVSPropertyOp45
 70
     1
102
RTVSPropertyOp46
 70
     1
102
RTVSPropertyOp47
 70
     1
102
RTVSPropertyOp48
 70
     1
102
RTVSPropertyOp49
 70
     1
102
RTVSPropertyOp50
 70
     1
102
RTVSPropertyOp51
 70
     0
102
RTVSPropertyOp52
 70
     0
102
RTVSPropertyOp53
 70
     1
102
RTVSPropertyOp54
 70
     1
102
RTVSPropertyOp55
 70
     1
102
RTVSPropertyOp56
 70
     1
102
RTVSPropertyOp57
 70
     1
102
RTVSPropertyOp58
 70
     1
102
RTVSPropertyOp59
 70
     1
102
RTVSPropertyOp60
 70
     1
102
RTVSPropertyOp61
 70
     1
102
RTVSPropertyOp62
 70
     1
  0
XRECORD
  5
EA3
102
{ACAD_REACTORS
330
EA2
102
}
330
EA2
100
AcDbXrecord
280
     1
102
RTVSPost2010Prop28
280
     0
102
RTVSPost2010PropOp28
 70
     1
102
RTVSPost2010Prop29
280
     1
102
RTVSPost2010PropOp29
 70
     1
102
RTVSPost2010Prop30
280
     1
102
RTVSPost2010PropOp30
 70
     1
102
RTVSPost2010Prop31
280
     0
102
RTVSPost2010PropOp31
 70
     1
102
RTVSPost2010Prop32
280
     0
102
RTVSPost2010PropOp32
 70
     1
102
RTVSPost2010Prop33
280
     0
102
RTVSPost2010PropOp33
 70
     1
102
RTVSPost2010Prop34
280
     0
102
RTVSPost2010PropOp34
 70
     1
102
RTVSPost2010Prop35
280
     0
102
RTVSPost2010PropOp35
 70
     1
102
RTVSPost2010Prop36
280
     0
102
RTVSPost2010PropOp36
 70
     1
102
RTVSPost2010Prop37
 90
       50
102
RTVSPost2010PropOp37
 70
     1
102
RTVSPost2010Prop38
140
0.0
102
RTVSPost2010PropOp38
 70
     1
102
RTVSPost2010Prop39
140
1.0
102
RTVSPost2010PropOp39
 70
     1
102
RTVSPost2010Prop40
 90
        0
102
RTVSPost2010PropOp40
 70
     1
102
RTVSPost2010Prop41ColorIndex
 90
       18
102
RTVSPost2010Prop41ColorRGB
 90
        0
102
RTVSPost2010PropOp41
 70
     1
102
RTVSPost2010Prop42
 90
       50
102
RTVSPost2010PropOp42
 70
     1
102
RTVSPost2010Prop43
 90
        3
102
RTVSPost2010PropOp43
 70
     1
102
RTVSPost2010Prop44ColorIndex
 90
        5
102
RTVSPost2010Prop44ColorRGB
 90
      255
102
RTVSPost2010PropOp44
 70
     1
102
RTVSPost2010Prop45
280
     0
102
RTVSPost2010PropOp45
 70
     1
102
RTVSPost2010Prop46
 90
       50
102
RTVSPost2010PropOp46
 70
     1
102
RTVSPost2010Prop47
 90
       50
102
RTVSPost2010PropOp47
 70
     1
102
RTVSPost2010Prop48
 90
       50
102
RTVSPost2010PropOp48
 70
     1
102
RTVSPost2010Prop49
280
     0
102
RTVSPost2010PropOp49
 70
     1
102
RTVSPost2010Prop50
 90
       50
102
RTVSPost2010PropOp50
 70
     1
102
RTVSPost2010Prop51ColorIndex
 90
      256
102
RTVSPost2010Prop51ColorRGB
 90
-16777216
102
RTVSPost2010PropOp51
 70
     0
102
RTVSPost2010Prop52
140
1.0
102
RTVSPost2010PropOp52
 70
     0
102
RTVSPost2010Prop53
 90
        2
102
RTVSPost2010PropOp53
 70
     1
102
RTVSPost2010Prop54
  1
strokes_ogs.tif
102
RTVSPost2010PropOp54
 70
     1
102
RTVSPost2010Prop55
280
     0
102
RTVSPost2010PropOp55
 70
     1
102
RTVSPost2010Prop56
140
1.0
102
RTVSPost2010PropOp56
 70
     1
102
RTVSPost2010Prop57
140
1.0
102
RTVSPost2010PropOp57
 70
     1
102
RTVSPropertyOp0
 70
     1
102
RTVSPropertyOp1
 70
     1
102
RTVSPropertyOp2
 70
     1
102
RTVSPropertyOp3
 70
     1
102
RTVSPropertyOp4
 70
     1
102
RTVSPropertyOp5
 70
     1
102
RTVSPropertyOp6
 70
     1
102
RTVSPropertyOp7
 70
     1
102
RTVSPropertyOp8
 70
     1
102
RTVSPropertyOp9
 70
     1
102
RTVSPropertyOp10
 70
     1
102
RTVSPropertyOp11
 70
     1
102
RTVSPropertyOp12
 70
     1
102
RTVSPropertyOp13
 70
     1
102
RTVSPropertyOp14
 70
     1
102
RTVSPropertyOp15
 70
     1
102
RTVSPropertyOp16
 70
     1
102
RTVSPropertyOp17
 70
     1
102
RTVSPropertyOp18
 70
     1
102
RTVSPropertyOp19
 70
     1
102
RTVSPropertyOp20
 70
     1
102
RTVSPropertyOp21
 70
     1
102
RTVSPropertyOp22
 70
     1
102
RTVSPropertyOp23
 70
     1
102
RTVSPropertyOp24
 70
     1
102
RTVSPropertyOp25
 70
     1
102
RTVSPropertyOp26
 70
     1
102
RTVSPropertyOp27
 70
     1
102
RTVSPropertyOp28
 70
     1
102
RTVSPropertyOp29
 70
     1
102
RTVSPropertyOp30
 70
     1
102
RTVSPropertyOp31
 70
     1
102
RTVSPropertyOp32
 70
     1
102
RTVSPropertyOp33
 70
     1
102
RTVSPropertyOp34
 70
     1
102
RTVSPropertyOp35
 70
     1
102
RTVSPropertyOp36
 70
     1
102
RTVSPropertyOp37
 70
     1
102
RTVSPropertyOp38
 70
     1
102
RTVSPropertyOp39
 70
     1
102
RTVSPropertyOp40
 70
     1
102
RTVSPropertyOp41
 70
     1
102
RTVSPropertyOp42
 70
     1
102
RTVSPropertyOp43
 70
     1
102
RTVSPropertyOp44
 70
     1
102
RTVSPropertyOp45
 70
     1
102
RTVSPropertyOp46
 70
     1
102
RTVSPropertyOp47
 70
     1
102
RTVSPropertyOp48
 70
     1
102
RTVSPropertyOp49
 70
     1
102
RTVSPropertyOp50
 70
     1
102
RTVSPropertyOp51
 70
     0
102
RTVSPropertyOp52
 70
     0
102
RTVSPropertyOp53
 70
     1
102
RTVSPropertyOp54
 70
     1
102
RTVSPropertyOp55
 70
     1
102
RTVSPropertyOp56
 70
     1
102
RTVSPropertyOp57
 70
     1
102
RTVSPropertyOp58
 70
     1
102
RTVSPropertyOp59
 70
     1
102
RTVSPropertyOp60
 70
     1
102
RTVSPropertyOp61
 70
     1
102
RTVSPropertyOp62
 70
     1
  0
XRECORD
  5
EAB
102
{ACAD_REACTORS
330
EAA
102
}
330
EAA
100
AcDbXrecord
280
     1
102
RTVSPost2010Prop28
280
     0
102
RTVSPost2010PropOp28
 70
     1
102
RTVSPost2010Prop29
280
     1
102
RTVSPost2010PropOp29
 70
     1
102
RTVSPost2010Prop30
280
     1
102
RTVSPost2010PropOp30
 70
     1
102
RTVSPost2010Prop31
280
     0
102
RTVSPost2010PropOp31
 70
     1
102
RTVSPost2010Prop32
280
     0
102
RTVSPost2010PropOp32
 70
     1
102
RTVSPost2010Prop33
280
     0
102
RTVSPost2010PropOp33
 70
     1
102
RTVSPost2010Prop34
280
     0
102
RTVSPost2010PropOp34
 70
     1
102
RTVSPost2010Prop35
280
     0
102
RTVSPost2010PropOp35
 70
     1
102
RTVSPost2010Prop36
280
     0
102
RTVSPost2010PropOp36
 70
     1
102
RTVSPost2010Prop37
 90
       50
102
RTVSPost2010PropOp37
 70
     1
102
RTVSPost2010Prop38
140
0.0
102
RTVSPost2010PropOp38
 70
     1
102
RTVSPost2010Prop39
140
1.0
102
RTVSPost2010PropOp39
 70
     1
102
RTVSPost2010Prop40
 90
        0
102
RTVSPost2010PropOp40
 70
     1
102
RTVSPost2010Prop41ColorIndex
 90
       18
102
RTVSPost2010Prop41ColorRGB
 90
        0
102
RTVSPost2010PropOp41
 70
     1
102
RTVSPost2010Prop42
 90
       50
102
RTVSPost2010PropOp42
 70
     1
102
RTVSPost2010Prop43
 90
        3
102
RTVSPost2010PropOp43
 70
     1
102
RTVSPost2010Prop44ColorIndex
 90
        5
102
RTVSPost2010Prop44ColorRGB
 90
      255
102
RTVSPost2010PropOp44
 70
     1
102
RTVSPost2010Prop45
280
     0
102
RTVSPost2010PropOp45
 70
     1
102
RTVSPost2010Prop46
 90
       50
102
RTVSPost2010PropOp46
 70
     1
102
RTVSPost2010Prop47
 90
       50
102
RTVSPost2010PropOp47
 70
     1
102
RTVSPost2010Prop48
 90
       50
102
RTVSPost2010PropOp48
 70
     1
102
RTVSPost2010Prop49
280
     0
102
RTVSPost2010PropOp49
 70
     1
102
RTVSPost2010Prop50
 90
       50
102
RTVSPost2010PropOp50
 70
     1
102
RTVSPost2010Prop51ColorIndex
 90
      256
102
RTVSPost2010Prop51ColorRGB
 90
-16777216
102
RTVSPost2010PropOp51
 70
     0
102
RTVSPost2010Prop52
140
1.0
102
RTVSPost2010PropOp52
 70
     0
102
RTVSPost2010Prop53
 90
        2
102
RTVSPost2010PropOp53
 70
     1
102
RTVSPost2010Prop54
  1
strokes_ogs.tif
102
RTVSPost2010PropOp54
 70
     1
102
RTVSPost2010Prop55
280
     0
102
RTVSPost2010PropOp55
 70
     1
102
RTVSPost2010Prop56
140
1.0
102
RTVSPost2010PropOp56
 70
     1
102
RTVSPost2010Prop57
140
1.0
102
RTVSPost2010PropOp57
 70
     1
102
RTVSPropertyOp0
 70
     1
102
RTVSPropertyOp1
 70
     1
102
RTVSPropertyOp2
 70
     1
102
RTVSPropertyOp3
 70
     1
102
RTVSPropertyOp4
 70
     1
102
RTVSPropertyOp5
 70
     1
102
RTVSPropertyOp6
 70
     1
102
RTVSPropertyOp7
 70
     1
102
RTVSPropertyOp8
 70
     1
102
RTVSPropertyOp9
 70
     1
102
RTVSPropertyOp10
 70
     1
102
RTVSPropertyOp11
 70
     1
102
RTVSPropertyOp12
 70
     1
102
RTVSPropertyOp13
 70
     1
102
RTVSPropertyOp14
 70
     1
102
RTVSPropertyOp15
 70
     1
102
RTVSPropertyOp16
 70
     1
102
RTVSPropertyOp17
 70
     1
102
RTVSPropertyOp18
 70
     1
102
RTVSPropertyOp19
 70
     1
102
RTVSPropertyOp20
 70
     1
102
RTVSPropertyOp21
 70
     1
102
RTVSPropertyOp22
 70
     1
102
RTVSPropertyOp23
 70
     1
102
RTVSPropertyOp24
 70
     1
102
RTVSPropertyOp25
 70
     1
102
RTVSPropertyOp26
 70
     1
102
RTVSPropertyOp27
 70
     1
102
RTVSPropertyOp28
 70
     1
102
RTVSPropertyOp29
 70
     1
102
RTVSPropertyOp30
 70
     1
102
RTVSPropertyOp31
 70
     1
102
RTVSPropertyOp32
 70
     1
102
RTVSPropertyOp33
 70
     1
102
RTVSPropertyOp34
 70
     1
102
RTVSPropertyOp35
 70
     1
102
RTVSPropertyOp36
 70
     1
102
RTVSPropertyOp37
 70
     1
102
RTVSPropertyOp38
 70
     1
102
RTVSPropertyOp39
 70
     1
102
RTVSPropertyOp40
 70
     1
102
RTVSPropertyOp41
 70
     1
102
RTVSPropertyOp42
 70
     1
102
RTVSPropertyOp43
 70
     1
102
RTVSPropertyOp44
 70
     1
102
RTVSPropertyOp45
 70
     1
102
RTVSPropertyOp46
 70
     1
102
RTVSPropertyOp47
 70
     1
102
RTVSPropertyOp48
 70
     1
102
RTVSPropertyOp49
 70
     1
102
RTVSPropertyOp50
 70
     1
102
RTVSPropertyOp51
 70
     0
102
RTVSPropertyOp52
 70
     0
102
RTVSPropertyOp53
 70
     1
102
RTVSPropertyOp54
 70
     1
102
RTVSPropertyOp55
 70
     1
102
RTVSPropertyOp56
 70
     1
102
RTVSPropertyOp57
 70
     1
102
RTVSPropertyOp58
 70
     1
102
RTVSPropertyOp59
 70
     1
102
RTVSPropertyOp60
 70
     1
102
RTVSPropertyOp61
 70
     1
102
RTVSPropertyOp62
 70
     1
  0
XRECORD
  5
EB3
102
{ACAD_REACTORS
330
EB2
102
}
330
EB2
100
AcDbXrecord
280
     1
102
RTVSPost2010Prop28
280
     0
102
RTVSPost2010PropOp28
 70
     1
102
RTVSPost2010Prop29
280
     1
102
RTVSPost2010PropOp29
 70
     1
102
RTVSPost2010Prop30
280
     1
102
RTVSPost2010PropOp30
 70
     1
102
RTVSPost2010Prop31
280
     0
102
RTVSPost2010PropOp31
 70
     1
102
RTVSPost2010Prop32
280
     0
102
RTVSPost2010PropOp32
 70
     1
102
RTVSPost2010Prop33
280
     0
102
RTVSPost2010PropOp33
 70
     1
102
RTVSPost2010Prop34
280
     0
102
RTVSPost2010PropOp34
 70
     1
102
RTVSPost2010Prop35
280
     0
102
RTVSPost2010PropOp35
 70
     1
102
RTVSPost2010Prop36
280
     0
102
RTVSPost2010PropOp36
 70
     1
102
RTVSPost2010Prop37
 90
       50
102
RTVSPost2010PropOp37
 70
     1
102
RTVSPost2010Prop38
140
0.0
102
RTVSPost2010PropOp38
 70
     1
102
RTVSPost2010Prop39
140
1.0
102
RTVSPost2010PropOp39
 70
     1
102
RTVSPost2010Prop40
 90
        0
102
RTVSPost2010PropOp40
 70
     1
102
RTVSPost2010Prop41ColorIndex
 90
       18
102
RTVSPost2010Prop41ColorRGB
 90
        0
102
RTVSPost2010PropOp41
 70
     1
102
RTVSPost2010Prop42
 90
       50
102
RTVSPost2010PropOp42
 70
     1
102
RTVSPost2010Prop43
 90
        3
102
RTVSPost2010PropOp43
 70
     1
102
RTVSPost2010Prop44ColorIndex
 90
        5
102
RTVSPost2010Prop44ColorRGB
 90
      255
102
RTVSPost2010PropOp44
 70
     1
102
RTVSPost2010Prop45
280
     0
102
RTVSPost2010PropOp45
 70
     1
102
RTVSPost2010Prop46
 90
       50
102
RTVSPost2010PropOp46
 70
     1
102
RTVSPost2010Prop47
 90
       50
102
RTVSPost2010PropOp47
 70
     1
102
RTVSPost2010Prop48
 90
       50
102
RTVSPost2010PropOp48
 70
     1
102
RTVSPost2010Prop49
280
     0
102
RTVSPost2010PropOp49
 70
     1
102
RTVSPost2010Prop50
 90
       50
102
RTVSPost2010PropOp50
 70
     1
102
RTVSPost2010Prop51ColorIndex
 90
      256
102
RTVSPost2010Prop51ColorRGB
 90
-16777216
102
RTVSPost2010PropOp51
 70
     0
102
RTVSPost2010Prop52
140
1.0
102
RTVSPost2010PropOp52
 70
     0
102
RTVSPost2010Prop53
 90
        2
102
RTVSPost2010PropOp53
 70
     1
102
RTVSPost2010Prop54
  1
strokes_ogs.tif
102
RTVSPost2010PropOp54
 70
     1
102
RTVSPost2010Prop55
280
     0
102
RTVSPost2010PropOp55
 70
     1
102
RTVSPost2010Prop56
140
1.0
102
RTVSPost2010PropOp56
 70
     1
102
RTVSPost2010Prop57
140
1.0
102
RTVSPost2010PropOp57
 70
     1
102
RTVSPropertyOp0
 70
     1
102
RTVSPropertyOp1
 70
     1
102
RTVSPropertyOp2
 70
     1
102
RTVSPropertyOp3
 70
     1
102
RTVSPropertyOp4
 70
     1
102
RTVSPropertyOp5
 70
     1
102
RTVSPropertyOp6
 70
     1
102
RTVSPropertyOp7
 70
     1
102
RTVSPropertyOp8
 70
     1
102
RTVSPropertyOp9
 70
     1
102
RTVSPropertyOp10
 70
     1
102
RTVSPropertyOp11
 70
     1
102
RTVSPropertyOp12
 70
     1
102
RTVSPropertyOp13
 70
     1
102
RTVSPropertyOp14
 70
     1
102
RTVSPropertyOp15
 70
     1
102
RTVSPropertyOp16
 70
     1
102
RTVSPropertyOp17
 70
     1
102
RTVSPropertyOp18
 70
     1
102
RTVSPropertyOp19
 70
     1
102
RTVSPropertyOp20
 70
     1
102
RTVSPropertyOp21
 70
     1
102
RTVSPropertyOp22
 70
     1
102
RTVSPropertyOp23
 70
     1
102
RTVSPropertyOp24
 70
     1
102
RTVSPropertyOp25
 70
     1
102
RTVSPropertyOp26
 70
     1
102
RTVSPropertyOp27
 70
     1
102
RTVSPropertyOp28
 70
     1
102
RTVSPropertyOp29
 70
     1
102
RTVSPropertyOp30
 70
     1
102
RTVSPropertyOp31
 70
     1
102
RTVSPropertyOp32
 70
     1
102
RTVSPropertyOp33
 70
     1
102
RTVSPropertyOp34
 70
     1
102
RTVSPropertyOp35
 70
     1
102
RTVSPropertyOp36
 70
     1
102
RTVSPropertyOp37
 70
     1
102
RTVSPropertyOp38
 70
     1
102
RTVSPropertyOp39
 70
     1
102
RTVSPropertyOp40
 70
     1
102
RTVSPropertyOp41
 70
     1
102
RTVSPropertyOp42
 70
     1
102
RTVSPropertyOp43
 70
     1
102
RTVSPropertyOp44
 70
     1
102
RTVSPropertyOp45
 70
     1
102
RTVSPropertyOp46
 70
     1
102
RTVSPropertyOp47
 70
     1
102
RTVSPropertyOp48
 70
     1
102
RTVSPropertyOp49
 70
     1
102
RTVSPropertyOp50
 70
     1
102
RTVSPropertyOp51
 70
     0
102
RTVSPropertyOp52
 70
     0
102
RTVSPropertyOp53
 70
     1
102
RTVSPropertyOp54
 70
     1
102
RTVSPropertyOp55
 70
     1
102
RTVSPropertyOp56
 70
     1
102
RTVSPropertyOp57
 70
     1
102
RTVSPropertyOp58
 70
     1
102
RTVSPropertyOp59
 70
     1
102
RTVSPropertyOp60
 70
     1
102
RTVSPropertyOp61
 70
     1
102
RTVSPropertyOp62
 70
     1
  0
XRECORD
  5
EA7
102
{ACAD_REACTORS
330
EA6
102
}
330
EA6
100
AcDbXrecord
280
     1
102
RTVSPost2010Prop28
280
     0
102
RTVSPost2010PropOp28
 70
     1
102
RTVSPost2010Prop29
280
     1
102
RTVSPost2010PropOp29
 70
     1
102
RTVSPost2010Prop30
280
     1
102
RTVSPost2010PropOp30
 70
     1
102
RTVSPost2010Prop31
280
     0
102
RTVSPost2010PropOp31
 70
     1
102
RTVSPost2010Prop32
280
     0
102
RTVSPost2010PropOp32
 70
     1
102
RTVSPost2010Prop33
280
     0
102
RTVSPost2010PropOp33
 70
     1
102
RTVSPost2010Prop34
280
     0
102
RTVSPost2010PropOp34
 70
     1
102
RTVSPost2010Prop35
280
     0
102
RTVSPost2010PropOp35
 70
     1
102
RTVSPost2010Prop36
280
     0
102
RTVSPost2010PropOp36
 70
     1
102
RTVSPost2010Prop37
 90
       50
102
RTVSPost2010PropOp37
 70
     1
102
RTVSPost2010Prop38
140
0.0
102
RTVSPost2010PropOp38
 70
     1
102
RTVSPost2010Prop39
140
1.0
102
RTVSPost2010PropOp39
 70
     1
102
RTVSPost2010Prop40
 90
        0
102
RTVSPost2010PropOp40
 70
     1
102
RTVSPost2010Prop41ColorIndex
 90
       18
102
RTVSPost2010Prop41ColorRGB
 90
        0
102
RTVSPost2010PropOp41
 70
     1
102
RTVSPost2010Prop42
 90
       50
102
RTVSPost2010PropOp42
 70
     1
102
RTVSPost2010Prop43
 90
        3
102
RTVSPost2010PropOp43
 70
     1
102
RTVSPost2010Prop44ColorIndex
 90
        5
102
RTVSPost2010Prop44ColorRGB
 90
      255
102
RTVSPost2010PropOp44
 70
     1
102
RTVSPost2010Prop45
280
     0
102
RTVSPost2010PropOp45
 70
     1
102
RTVSPost2010Prop46
 90
       50
102
RTVSPost2010PropOp46
 70
     1
102
RTVSPost2010Prop47
 90
       50
102
RTVSPost2010PropOp47
 70
     1
102
RTVSPost2010Prop48
 90
       50
102
RTVSPost2010PropOp48
 70
     1
102
RTVSPost2010Prop49
280
     0
102
RTVSPost2010PropOp49
 70
     1
102
RTVSPost2010Prop50
 90
       50
102
RTVSPost2010PropOp50
 70
     1
102
RTVSPost2010Prop51ColorIndex
 90
      256
102
RTVSPost2010Prop51ColorRGB
 90
-16777216
102
RTVSPost2010PropOp51
 70
     0
102
RTVSPost2010Prop52
140
1.0
102
RTVSPost2010PropOp52
 70
     0
102
RTVSPost2010Prop53
 90
        2
102
RTVSPost2010PropOp53
 70
     1
102
RTVSPost2010Prop54
  1
strokes_ogs.tif
102
RTVSPost2010PropOp54
 70
     1
102
RTVSPost2010Prop55
280
     0
102
RTVSPost2010PropOp55
 70
     1
102
RTVSPost2010Prop56
140
1.0
102
RTVSPost2010PropOp56
 70
     1
102
RTVSPost2010Prop57
140
1.0
102
RTVSPost2010PropOp57
 70
     1
102
RTVSPropertyOp0
 70
     1
102
RTVSPropertyOp1
 70
     1
102
RTVSPropertyOp2
 70
     1
102
RTVSPropertyOp3
 70
     1
102
RTVSPropertyOp4
 70
     1
102
RTVSPropertyOp5
 70
     1
102
RTVSPropertyOp6
 70
     1
102
RTVSPropertyOp7
 70
     1
102
RTVSPropertyOp8
 70
     1
102
RTVSPropertyOp9
 70
     1
102
RTVSPropertyOp10
 70
     1
102
RTVSPropertyOp11
 70
     1
102
RTVSPropertyOp12
 70
     1
102
RTVSPropertyOp13
 70
     1
102
RTVSPropertyOp14
 70
     1
102
RTVSPropertyOp15
 70
     1
102
RTVSPropertyOp16
 70
     1
102
RTVSPropertyOp17
 70
     1
102
RTVSPropertyOp18
 70
     1
102
RTVSPropertyOp19
 70
     1
102
RTVSPropertyOp20
 70
     1
102
RTVSPropertyOp21
 70
     1
102
RTVSPropertyOp22
 70
     1
102
RTVSPropertyOp23
 70
     1
102
RTVSPropertyOp24
 70
     1
102
RTVSPropertyOp25
 70
     1
102
RTVSPropertyOp26
 70
     1
102
RTVSPropertyOp27
 70
     1
102
RTVSPropertyOp28
 70
     1
102
RTVSPropertyOp29
 70
     1
102
RTVSPropertyOp30
 70
     1
102
RTVSPropertyOp31
 70
     1
102
RTVSPropertyOp32
 70
     1
102
RTVSPropertyOp33
 70
     1
102
RTVSPropertyOp34
 70
     1
102
RTVSPropertyOp35
 70
     1
102
RTVSPropertyOp36
 70
     1
102
RTVSPropertyOp37
 70
     1
102
RTVSPropertyOp38
 70
     1
102
RTVSPropertyOp39
 70
     1
102
RTVSPropertyOp40
 70
     1
102
RTVSPropertyOp41
 70
     1
102
RTVSPropertyOp42
 70
     1
102
RTVSPropertyOp43
 70
     1
102
RTVSPropertyOp44
 70
     1
102
RTVSPropertyOp45
 70
     1
102
RTVSPropertyOp46
 70
     1
102
RTVSPropertyOp47
 70
     1
102
RTVSPropertyOp48
 70
     1
102
RTVSPropertyOp49
 70
     1
102
RTVSPropertyOp50
 70
     1
102
RTVSPropertyOp51
 70
     0
102
RTVSPropertyOp52
 70
     0
102
RTVSPropertyOp53
 70
     1
102
RTVSPropertyOp54
 70
     1
102
RTVSPropertyOp55
 70
     1
102
RTVSPropertyOp56
 70
     1
102
RTVSPropertyOp57
 70
     1
102
RTVSPropertyOp58
 70
     1
102
RTVSPropertyOp59
 70
     1
102
RTVSPropertyOp60
 70
     1
102
RTVSPropertyOp61
 70
     1
102
RTVSPropertyOp62
 70
     1
  0
XRECORD
  5
EA9
102
{ACAD_REACTORS
330
EA8
102
}
330
EA8
100
AcDbXrecord
280
     1
102
RTVSPost2010Prop28
280
     0
102
RTVSPost2010PropOp28
 70
     1
102
RTVSPost2010Prop29
280
     1
102
RTVSPost2010PropOp29
 70
     1
102
RTVSPost2010Prop30
280
     1
102
RTVSPost2010PropOp30
 70
     1
102
RTVSPost2010Prop31
280
     0
102
RTVSPost2010PropOp31
 70
     1
102
RTVSPost2010Prop32
280
     0
102
RTVSPost2010PropOp32
 70
     1
102
RTVSPost2010Prop33
280
     0
102
RTVSPost2010PropOp33
 70
     1
102
RTVSPost2010Prop34
280
     0
102
RTVSPost2010PropOp34
 70
     1
102
RTVSPost2010Prop35
280
     0
102
RTVSPost2010PropOp35
 70
     1
102
RTVSPost2010Prop36
280
     0
102
RTVSPost2010PropOp36
 70
     1
102
RTVSPost2010Prop37
 90
       50
102
RTVSPost2010PropOp37
 70
     1
102
RTVSPost2010Prop38
140
0.0
102
RTVSPost2010PropOp38
 70
     1
102
RTVSPost2010Prop39
140
1.0
102
RTVSPost2010PropOp39
 70
     1
102
RTVSPost2010Prop40
 90
        0
102
RTVSPost2010PropOp40
 70
     1
102
RTVSPost2010Prop41ColorIndex
 90
       18
102
RTVSPost2010Prop41ColorRGB
 90
        0
102
RTVSPost2010PropOp41
 70
     1
102
RTVSPost2010Prop42
 90
       50
102
RTVSPost2010PropOp42
 70
     1
102
RTVSPost2010Prop43
 90
        3
102
RTVSPost2010PropOp43
 70
     1
102
RTVSPost2010Prop44ColorIndex
 90
        5
102
RTVSPost2010Prop44ColorRGB
 90
      255
102
RTVSPost2010PropOp44
 70
     1
102
RTVSPost2010Prop45
280
     0
102
RTVSPost2010PropOp45
 70
     1
102
RTVSPost2010Prop46
 90
       50
102
RTVSPost2010PropOp46
 70
     1
102
RTVSPost2010Prop47
 90
       50
102
RTVSPost2010PropOp47
 70
     1
102
RTVSPost2010Prop48
 90
       50
102
RTVSPost2010PropOp48
 70
     1
102
RTVSPost2010Prop49
280
     0
102
RTVSPost2010PropOp49
 70
     1
102
RTVSPost2010Prop50
 90
       50
102
RTVSPost2010PropOp50
 70
     1
102
RTVSPost2010Prop51ColorIndex
 90
      256
102
RTVSPost2010Prop51ColorRGB
 90
-16777216
102
RTVSPost2010PropOp51
 70
     0
102
RTVSPost2010Prop52
140
1.0
102
RTVSPost2010PropOp52
 70
     0
102
RTVSPost2010Prop53
 90
        2
102
RTVSPost2010PropOp53
 70
     1
102
RTVSPost2010Prop54
  1
strokes_ogs.tif
102
RTVSPost2010PropOp54
 70
     1
102
RTVSPost2010Prop55
280
     0
102
RTVSPost2010PropOp55
 70
     1
102
RTVSPost2010Prop56
140
1.0
102
RTVSPost2010PropOp56
 70
     1
102
RTVSPost2010Prop57
140
1.0
102
RTVSPost2010PropOp57
 70
     1
102
RTVSPropertyOp0
 70
     1
102
RTVSPropertyOp1
 70
     1
102
RTVSPropertyOp2
 70
     1
102
RTVSPropertyOp3
 70
     1
102
RTVSPropertyOp4
 70
     1
102
RTVSPropertyOp5
 70
     1
102
RTVSPropertyOp6
 70
     1
102
RTVSPropertyOp7
 70
     1
102
RTVSPropertyOp8
 70
     1
102
RTVSPropertyOp9
 70
     1
102
RTVSPropertyOp10
 70
     1
102
RTVSPropertyOp11
 70
     1
102
RTVSPropertyOp12
 70
     1
102
RTVSPropertyOp13
 70
     1
102
RTVSPropertyOp14
 70
     1
102
RTVSPropertyOp15
 70
     1
102
RTVSPropertyOp16
 70
     1
102
RTVSPropertyOp17
 70
     1
102
RTVSPropertyOp18
 70
     1
102
RTVSPropertyOp19
 70
     1
102
RTVSPropertyOp20
 70
     1
102
RTVSPropertyOp21
 70
     1
102
RTVSPropertyOp22
 70
     1
102
RTVSPropertyOp23
 70
     1
102
RTVSPropertyOp24
 70
     1
102
RTVSPropertyOp25
 70
     1
102
RTVSPropertyOp26
 70
     1
102
RTVSPropertyOp27
 70
     1
102
RTVSPropertyOp28
 70
     1
102
RTVSPropertyOp29
 70
     1
102
RTVSPropertyOp30
 70
     1
102
RTVSPropertyOp31
 70
     1
102
RTVSPropertyOp32
 70
     1
102
RTVSPropertyOp33
 70
     1
102
RTVSPropertyOp34
 70
     1
102
RTVSPropertyOp35
 70
     1
102
RTVSPropertyOp36
 70
     1
102
RTVSPropertyOp37
 70
     1
102
RTVSPropertyOp38
 70
     1
102
RTVSPropertyOp39
 70
     1
102
RTVSPropertyOp40
 70
     1
102
RTVSPropertyOp41
 70
     1
102
RTVSPropertyOp42
 70
     1
102
RTVSPropertyOp43
 70
     1
102
RTVSPropertyOp44
 70
     1
102
RTVSPropertyOp45
 70
     1
102
RTVSPropertyOp46
 70
     1
102
RTVSPropertyOp47
 70
     1
102
RTVSPropertyOp48
 70
     1
102
RTVSPropertyOp49
 70
     1
102
RTVSPropertyOp50
 70
     1
102
RTVSPropertyOp51
 70
     0
102
RTVSPropertyOp52
 70
     0
102
RTVSPropertyOp53
 70
     1
102
RTVSPropertyOp54
 70
     1
102
RTVSPropertyOp55
 70
     1
102
RTVSPropertyOp56
 70
     1
102
RTVSPropertyOp57
 70
     1
102
RTVSPropertyOp58
 70
     1
102
RTVSPropertyOp59
 70
     1
102
RTVSPropertyOp60
 70
     1
102
RTVSPropertyOp61
 70
     1
102
RTVSPropertyOp62
 70
     1
  0
XRECORD
  5
EB9
102
{ACAD_REACTORS
330
EB8
102
}
330
EB8
100
AcDbXrecord
280
     1
102
RTVSPost2010Prop28
280
     0
102
RTVSPost2010PropOp28
 70
     0
102
RTVSPost2010Prop29
280
     1
102
RTVSPost2010PropOp29
 70
     0
102
RTVSPost2010Prop30
280
     1
102
RTVSPost2010PropOp30
 70
     0
102
RTVSPost2010Prop31
280
     0
102
RTVSPost2010PropOp31
 70
     0
102
RTVSPost2010Prop32
280
     0
102
RTVSPost2010PropOp32
 70
     0
102
RTVSPost2010Prop33
280
     0
102
RTVSPost2010PropOp33
 70
     0
102
RTVSPost2010Prop34
280
     0
102
RTVSPost2010PropOp34
 70
     0
102
RTVSPost2010Prop35
280
     0
102
RTVSPost2010PropOp35
 70
     0
102
RTVSPost2010Prop36
280
     0
102
RTVSPost2010PropOp36
 70
     0
102
RTVSPost2010Prop37
 90
       50
102
RTVSPost2010PropOp37
 70
     0
102
RTVSPost2010Prop38
140
0.0
102
RTVSPost2010PropOp38
 70
     0
102
RTVSPost2010Prop39
140
1.0
102
RTVSPost2010PropOp39
 70
     0
102
RTVSPost2010Prop40
 90
        0
102
RTVSPost2010PropOp40
 70
     0
102
RTVSPost2010Prop41ColorIndex
 90
       18
102
RTVSPost2010Prop41ColorRGB
 90
        0
102
RTVSPost2010PropOp41
 70
     0
102
RTVSPost2010Prop42
 90
       50
102
RTVSPost2010PropOp42
 70
     0
102
RTVSPost2010Prop43
 90
        3
102
RTVSPost2010PropOp43
 70
     0
102
RTVSPost2010Prop44ColorIndex
 90
        5
102
RTVSPost2010Prop44ColorRGB
 90
      255
102
RTVSPost2010PropOp44
 70
     0
102
RTVSPost2010Prop45
280
     0
102
RTVSPost2010PropOp45
 70
     0
102
RTVSPost2010Prop46
 90
       50
102
RTVSPost2010PropOp46
 70
     0
102
RTVSPost2010Prop47
 90
       50
102
RTVSPost2010PropOp47
 70
     0
102
RTVSPost2010Prop48
 90
       50
102
RTVSPost2010PropOp48
 70
     0
102
RTVSPost2010Prop49
280
     0
102
RTVSPost2010PropOp49
 70
     0
102
RTVSPost2010Prop50
 90
       50
102
RTVSPost2010PropOp50
 70
     0
102
RTVSPost2010Prop51ColorIndex
 90
      256
102
RTVSPost2010Prop51ColorRGB
 90
-16777216
102
RTVSPost2010PropOp51
 70
     0
102
RTVSPost2010Prop52
140
1.0
102
RTVSPost2010PropOp52
 70
     0
102
RTVSPost2010Prop53
 90
        2
102
RTVSPost2010PropOp53
 70
     0
102
RTVSPost2010Prop54
  1
strokes_ogs.tif
102
RTVSPost2010PropOp54
 70
     0
102
RTVSPost2010Prop55
280
     0
102
RTVSPost2010PropOp55
 70
     0
102
RTVSPost2010Prop56
140
1.0
102
RTVSPost2010PropOp56
 70
     0
102
RTVSPost2010Prop57
140
1.0
102
RTVSPost2010PropOp57
 70
     0
102
RTVSPropertyOp0
 70
     0
102
RTVSPropertyOp1
 70
     0
102
RTVSPropertyOp2
 70
     0
102
RTVSPropertyOp3
 70
     0
102
RTVSPropertyOp4
 70
     0
102
RTVSPropertyOp5
 70
     0
102
RTVSPropertyOp6
 70
     0
102
RTVSPropertyOp7
 70
     0
102
RTVSPropertyOp8
 70
     0
102
RTVSPropertyOp9
 70
     0
102
RTVSPropertyOp10
 70
     0
102
RTVSPropertyOp11
 70
     0
102
RTVSPropertyOp12
 70
     0
102
RTVSPropertyOp13
 70
     0
102
RTVSPropertyOp14
 70
     2
102
RTVSPropertyOp15
 70
     0
102
RTVSPropertyOp16
 70
     0
102
RTVSPropertyOp17
 70
     0
102
RTVSPropertyOp18
 70
     0
102
RTVSPropertyOp19
 70
     0
102
RTVSPropertyOp20
 70
     0
102
RTVSPropertyOp21
 70
     0
102
RTVSPropertyOp22
 70
     0
102
RTVSPropertyOp23
 70
     0
102
RTVSPropertyOp24
 70
     0
102
RTVSPropertyOp25
 70
     0
102
RTVSPropertyOp26
 70
     0
102
RTVSPropertyOp27
 70
     0
102
RTVSPropertyOp28
 70
     0
102
RTVSPropertyOp29
 70
     0
102
RTVSPropertyOp30
 70
     0
102
RTVSPropertyOp31
 70
     0
102
RTVSPropertyOp32
 70
     0
102
RTVSPropertyOp33
 70
     0
102
RTVSPropertyOp34
 70
     0
102
RTVSPropertyOp35
 70
     0
102
RTVSPropertyOp36
 70
     0
102
RTVSPropertyOp37
 70
     0
102
RTVSPropertyOp38
 70
     0
102
RTVSPropertyOp39
 70
     0
102
RTVSPropertyOp40
 70
     0
102
RTVSPropertyOp41
 70
     0
102
RTVSPropertyOp42
 70
     0
102
RTVSPropertyOp43
 70
     0
102
RTVSPropertyOp44
 70
     0
102
RTVSPropertyOp45
 70
     0
102
RTVSPropertyOp46
 70
     0
102
RTVSPropertyOp47
 70
     0
102
RTVSPropertyOp48
 70
     0
102
RTVSPropertyOp49
 70
     0
102
RTVSPropertyOp50
 70
     0
102
RTVSPropertyOp51
 70
     0
102
RTVSPropertyOp52
 70
     0
102
RTVSPropertyOp53
 70
     0
102
RTVSPropertyOp54
 70
     0
102
RTVSPropertyOp55
 70
     0
102
RTVSPropertyOp56
 70
     0
102
RTVSPropertyOp57
 70
     0
102
RTVSPropertyOp58
 70
     1
102
RTVSPropertyOp59
 70
     1
102
RTVSPropertyOp60
 70
     1
102
RTVSPropertyOp61
 70
     1
102
RTVSPropertyOp62
 70
     1
  0
XRECORD
  5
EB1
102
{ACAD_REACTORS
330
EB0
102
}
330
EB0
100
AcDbXrecord
280
     1
102
RTVSPost2010Prop28
280
     0
102
RTVSPost2010PropOp28
 70
     1
102
RTVSPost2010Prop29
280
     1
102
RTVSPost2010PropOp29
 70
     1
102
RTVSPost2010Prop30
280
     1
102
RTVSPost2010PropOp30
 70
     1
102
RTVSPost2010Prop31
280
     0
102
RTVSPost2010PropOp31
 70
     1
102
RTVSPost2010Prop32
280
     0
102
RTVSPost2010PropOp32
 70
     1
102
RTVSPost2010Prop33
280
     0
102
RTVSPost2010PropOp33
 70
     1
102
RTVSPost2010Prop34
280
     0
102
RTVSPost2010PropOp34
 70
     1
102
RTVSPost2010Prop35
280
     0
102
RTVSPost2010PropOp35
 70
     1
102
RTVSPost2010Prop36
280
     0
102
RTVSPost2010PropOp36
 70
     1
102
RTVSPost2010Prop37
 90
       50
102
RTVSPost2010PropOp37
 70
     1
102
RTVSPost2010Prop38
140
0.0
102
RTVSPost2010PropOp38
 70
     1
102
RTVSPost2010Prop39
140
1.0
102
RTVSPost2010PropOp39
 70
     1
102
RTVSPost2010Prop40
 90
        0
102
RTVSPost2010PropOp40
 70
     1
102
RTVSPost2010Prop41ColorIndex
 90
       18
102
RTVSPost2010Prop41ColorRGB
 90
        0
102
RTVSPost2010PropOp41
 70
     1
102
RTVSPost2010Prop42
 90
       50
102
RTVSPost2010PropOp42
 70
     1
102
RTVSPost2010Prop43
 90
        3
102
RTVSPost2010PropOp43
 70
     1
102
RTVSPost2010Prop44ColorIndex
 90
        5
102
RTVSPost2010Prop44ColorRGB
 90
      255
102
RTVSPost2010PropOp44
 70
     1
102
RTVSPost2010Prop45
280
     0
102
RTVSPost2010PropOp45
 70
     1
102
RTVSPost2010Prop46
 90
       50
102
RTVSPost2010PropOp46
 70
     1
102
RTVSPost2010Prop47
 90
       50
102
RTVSPost2010PropOp47
 70
     1
102
RTVSPost2010Prop48
 90
       50
102
RTVSPost2010PropOp48
 70
     1
102
RTVSPost2010Prop49
280
     0
102
RTVSPost2010PropOp49
 70
     1
102
RTVSPost2010Prop50
 90
       50
102
RTVSPost2010PropOp50
 70
     1
102
RTVSPost2010Prop51ColorIndex
 90
      256
102
RTVSPost2010Prop51ColorRGB
 90
-16777216
102
RTVSPost2010PropOp51
 70
     0
102
RTVSPost2010Prop52
140
1.0
102
RTVSPost2010PropOp52
 70
     0
102
RTVSPost2010Prop53
 90
        2
102
RTVSPost2010PropOp53
 70
     1
102
RTVSPost2010Prop54
  1
strokes_ogs.tif
102
RTVSPost2010PropOp54
 70
     1
102
RTVSPost2010Prop55
280
     0
102
RTVSPost2010PropOp55
 70
     1
102
RTVSPost2010Prop56
140
1.0
102
RTVSPost2010PropOp56
 70
     1
102
RTVSPost2010Prop57
140
1.0
102
RTVSPost2010PropOp57
 70
     1
102
RTVSPropertyOp0
 70
     1
102
RTVSPropertyOp1
 70
     1
102
RTVSPropertyOp2
 70
     1
102
RTVSPropertyOp3
 70
     1
102
RTVSPropertyOp4
 70
     1
102
RTVSPropertyOp5
 70
     1
102
RTVSPropertyOp6
 70
     1
102
RTVSPropertyOp7
 70
     1
102
RTVSPropertyOp8
 70
     1
102
RTVSPropertyOp9
 70
     1
102
RTVSPropertyOp10
 70
     1
102
RTVSPropertyOp11
 70
     1
102
RTVSPropertyOp12
 70
     1
102
RTVSPropertyOp13
 70
     1
102
RTVSPropertyOp14
 70
     1
102
RTVSPropertyOp15
 70
     1
102
RTVSPropertyOp16
 70
     1
102
RTVSPropertyOp17
 70
     1
102
RTVSPropertyOp18
 70
     1
102
RTVSPropertyOp19
 70
     1
102
RTVSPropertyOp20
 70
     1
102
RTVSPropertyOp21
 70
     1
102
RTVSPropertyOp22
 70
     1
102
RTVSPropertyOp23
 70
     1
102
RTVSPropertyOp24
 70
     1
102
RTVSPropertyOp25
 70
     1
102
RTVSPropertyOp26
 70
     1
102
RTVSPropertyOp27
 70
     1
102
RTVSPropertyOp28
 70
     1
102
RTVSPropertyOp29
 70
     1
102
RTVSPropertyOp30
 70
     1
102
RTVSPropertyOp31
 70
     1
102
RTVSPropertyOp32
 70
     1
102
RTVSPropertyOp33
 70
     1
102
RTVSPropertyOp34
 70
     1
102
RTVSPropertyOp35
 70
     1
102
RTVSPropertyOp36
 70
     1
102
RTVSPropertyOp37
 70
     1
102
RTVSPropertyOp38
 70
     1
102
RTVSPropertyOp39
 70
     1
102
RTVSPropertyOp40
 70
     1
102
RTVSPropertyOp41
 70
     1
102
RTVSPropertyOp42
 70
     1
102
RTVSPropertyOp43
 70
     1
102
RTVSPropertyOp44
 70
     1
102
RTVSPropertyOp45
 70
     1
102
RTVSPropertyOp46
 70
     1
102
RTVSPropertyOp47
 70
     1
102
RTVSPropertyOp48
 70
     1
102
RTVSPropertyOp49
 70
     1
102
RTVSPropertyOp50
 70
     1
102
RTVSPropertyOp51
 70
     0
102
RTVSPropertyOp52
 70
     0
102
RTVSPropertyOp53
 70
     1
102
RTVSPropertyOp54
 70
     1
102
RTVSPropertyOp55
 70
     1
102
RTVSPropertyOp56
 70
     1
102
RTVSPropertyOp57
 70
     1
102
RTVSPropertyOp58
 70
     1
102
RTVSPropertyOp59
 70
     1
102
RTVSPropertyOp60
 70
     1
102
RTVSPropertyOp61
 70
     1
102
RTVSPropertyOp62
 70
     1
  0
XRECORD
  5
E95
102
{ACAD_REACTORS
330
E94
102
}
330
E94
100
AcDbXrecord
280
     1
102
RTVSPost2010Prop28
280
     0
102
RTVSPost2010PropOp28
 70
     1
102
RTVSPost2010Prop29
280
     1
102
RTVSPost2010PropOp29
 70
     1
102
RTVSPost2010Prop30
280
     1
102
RTVSPost2010PropOp30
 70
     1
102
RTVSPost2010Prop31
280
     0
102
RTVSPost2010PropOp31
 70
     1
102
RTVSPost2010Prop32
280
     0
102
RTVSPost2010PropOp32
 70
     1
102
RTVSPost2010Prop33
280
     0
102
RTVSPost2010PropOp33
 70
     1
102
RTVSPost2010Prop34
280
     0
102
RTVSPost2010PropOp34
 70
     1
102
RTVSPost2010Prop35
280
     0
102
RTVSPost2010PropOp35
 70
     1
102
RTVSPost2010Prop36
280
     0
102
RTVSPost2010PropOp36
 70
     1
102
RTVSPost2010Prop37
 90
       50
102
RTVSPost2010PropOp37
 70
     1
102
RTVSPost2010Prop38
140
0.0
102
RTVSPost2010PropOp38
 70
     1
102
RTVSPost2010Prop39
140
1.0
102
RTVSPost2010PropOp39
 70
     1
102
RTVSPost2010Prop40
 90
        0
102
RTVSPost2010PropOp40
 70
     1
102
RTVSPost2010Prop41ColorIndex
 90
       18
102
RTVSPost2010Prop41ColorRGB
 90
        0
102
RTVSPost2010PropOp41
 70
     1
102
RTVSPost2010Prop42
 90
       50
102
RTVSPost2010PropOp42
 70
     1
102
RTVSPost2010Prop43
 90
        3
102
RTVSPost2010PropOp43
 70
     1
102
RTVSPost2010Prop44ColorIndex
 90
        5
102
RTVSPost2010Prop44ColorRGB
 90
      255
102
RTVSPost2010PropOp44
 70
     1
102
RTVSPost2010Prop45
280
     0
102
RTVSPost2010PropOp45
 70
     1
102
RTVSPost2010Prop46
 90
       50
102
RTVSPost2010PropOp46
 70
     1
102
RTVSPost2010Prop47
 90
       50
102
RTVSPost2010PropOp47
 70
     1
102
RTVSPost2010Prop48
 90
       50
102
RTVSPost2010PropOp48
 70
     1
102
RTVSPost2010Prop49
280
     0
102
RTVSPost2010PropOp49
 70
     1
102
RTVSPost2010Prop50
 90
       50
102
RTVSPost2010PropOp50
 70
     1
102
RTVSPost2010Prop51ColorIndex
 90
      256
102
RTVSPost2010Prop51ColorRGB
 90
-16777216
102
RTVSPost2010PropOp51
 70
     0
102
RTVSPost2010Prop52
140
1.0
102
RTVSPost2010PropOp52
 70
     0
102
RTVSPost2010Prop53
 90
        2
102
RTVSPost2010PropOp53
 70
     1
102
RTVSPost2010Prop54
  1
strokes_ogs.tif
102
RTVSPost2010PropOp54
 70
     1
102
RTVSPost2010Prop55
280
     0
102
RTVSPost2010PropOp55
 70
     1
102
RTVSPost2010Prop56
140
1.0
102
RTVSPost2010PropOp56
 70
     1
102
RTVSPost2010Prop57
140
1.0
102
RTVSPost2010PropOp57
 70
     1
102
RTVSPropertyOp0
 70
     1
102
RTVSPropertyOp1
 70
     1
102
RTVSPropertyOp2
 70
     1
102
RTVSPropertyOp3
 70
     1
102
RTVSPropertyOp4
 70
     1
102
RTVSPropertyOp5
 70
     1
102
RTVSPropertyOp6
 70
     1
102
RTVSPropertyOp7
 70
     1
102
RTVSPropertyOp8
 70
     1
102
RTVSPropertyOp9
 70
     1
102
RTVSPropertyOp10
 70
     1
102
RTVSPropertyOp11
 70
     1
102
RTVSPropertyOp12
 70
     1
102
RTVSPropertyOp13
 70
     1
102
RTVSPropertyOp14
 70
     1
102
RTVSPropertyOp15
 70
     1
102
RTVSPropertyOp16
 70
     1
102
RTVSPropertyOp17
 70
     1
102
RTVSPropertyOp18
 70
     1
102
RTVSPropertyOp19
 70
     1
102
RTVSPropertyOp20
 70
     1
102
RTVSPropertyOp21
 70
     1
102
RTVSPropertyOp22
 70
     1
102
RTVSPropertyOp23
 70
     1
102
RTVSPropertyOp24
 70
     1
102
RTVSPropertyOp25
 70
     1
102
RTVSPropertyOp26
 70
     1
102
RTVSPropertyOp27
 70
     1
102
RTVSPropertyOp28
 70
     1
102
RTVSPropertyOp29
 70
     1
102
RTVSPropertyOp30
 70
     1
102
RTVSPropertyOp31
 70
     1
102
RTVSPropertyOp32
 70
     1
102
RTVSPropertyOp33
 70
     1
102
RTVSPropertyOp34
 70
     1
102
RTVSPropertyOp35
 70
     1
102
RTVSPropertyOp36
 70
     1
102
RTVSPropertyOp37
 70
     1
102
RTVSPropertyOp38
 70
     1
102
RTVSPropertyOp39
 70
     1
102
RTVSPropertyOp40
 70
     1
102
RTVSPropertyOp41
 70
     1
102
RTVSPropertyOp42
 70
     1
102
RTVSPropertyOp43
 70
     1
102
RTVSPropertyOp44
 70
     1
102
RTVSPropertyOp45
 70
     1
102
RTVSPropertyOp46
 70
     1
102
RTVSPropertyOp47
 70
     1
102
RTVSPropertyOp48
 70
     1
102
RTVSPropertyOp49
 70
     1
102
RTVSPropertyOp50
 70
     1
102
RTVSPropertyOp51
 70
     0
102
RTVSPropertyOp52
 70
     0
102
RTVSPropertyOp53
 70
     1
102
RTVSPropertyOp54
 70
     1
102
RTVSPropertyOp55
 70
     1
102
RTVSPropertyOp56
 70
     1
102
RTVSPropertyOp57
 70
     1
102
RTVSPropertyOp58
 70
     1
102
RTVSPropertyOp59
 70
     1
102
RTVSPropertyOp60
 70
     1
102
RTVSPropertyOp61
 70
     1
102
RTVSPropertyOp62
 70
     1
  0
XRECORD
  5
E97
102
{ACAD_REACTORS
330
E96
102
}
330
E96
100
AcDbXrecord
280
     1
102
RTVSPost2010Prop28
280
     0
102
RTVSPost2010PropOp28
 70
     1
102
RTVSPost2010Prop29
280
     1
102
RTVSPost2010PropOp29
 70
     1
102
RTVSPost2010Prop30
280
     1
102
RTVSPost2010PropOp30
 70
     1
102
RTVSPost2010Prop31
280
     0
102
RTVSPost2010PropOp31
 70
     1
102
RTVSPost2010Prop32
280
     0
102
RTVSPost2010PropOp32
 70
     1
102
RTVSPost2010Prop33
280
     0
102
RTVSPost2010PropOp33
 70
     1
102
RTVSPost2010Prop34
280
     0
102
RTVSPost2010PropOp34
 70
     1
102
RTVSPost2010Prop35
280
     0
102
RTVSPost2010PropOp35
 70
     1
102
RTVSPost2010Prop36
280
     0
102
RTVSPost2010PropOp36
 70
     1
102
RTVSPost2010Prop37
 90
       50
102
RTVSPost2010PropOp37
 70
     1
102
RTVSPost2010Prop38
140
0.0
102
RTVSPost2010PropOp38
 70
     1
102
RTVSPost2010Prop39
140
1.0
102
RTVSPost2010PropOp39
 70
     1
102
RTVSPost2010Prop40
 90
        0
102
RTVSPost2010PropOp40
 70
     1
102
RTVSPost2010Prop41ColorIndex
 90
       18
102
RTVSPost2010Prop41ColorRGB
 90
        0
102
RTVSPost2010PropOp41
 70
     1
102
RTVSPost2010Prop42
 90
       50
102
RTVSPost2010PropOp42
 70
     1
102
RTVSPost2010Prop43
 90
        3
102
RTVSPost2010PropOp43
 70
     1
102
RTVSPost2010Prop44ColorIndex
 90
        5
102
RTVSPost2010Prop44ColorRGB
 90
      255
102
RTVSPost2010PropOp44
 70
     1
102
RTVSPost2010Prop45
280
     0
102
RTVSPost2010PropOp45
 70
     1
102
RTVSPost2010Prop46
 90
       50
102
RTVSPost2010PropOp46
 70
     1
102
RTVSPost2010Prop47
 90
       50
102
RTVSPost2010PropOp47
 70
     1
102
RTVSPost2010Prop48
 90
       50
102
RTVSPost2010PropOp48
 70
     1
102
RTVSPost2010Prop49
280
     0
102
RTVSPost2010PropOp49
 70
     1
102
RTVSPost2010Prop50
 90
       50
102
RTVSPost2010PropOp50
 70
     1
102
RTVSPost2010Prop51ColorIndex
 90
      256
102
RTVSPost2010Prop51ColorRGB
 90
-16777216
102
RTVSPost2010PropOp51
 70
     0
102
RTVSPost2010Prop52
140
1.0
102
RTVSPost2010PropOp52
 70
     0
102
RTVSPost2010Prop53
 90
        2
102
RTVSPost2010PropOp53
 70
     1
102
RTVSPost2010Prop54
  1
strokes_ogs.tif
102
RTVSPost2010PropOp54
 70
     1
102
RTVSPost2010Prop55
280
     0
102
RTVSPost2010PropOp55
 70
     1
102
RTVSPost2010Prop56
140
1.0
102
RTVSPost2010PropOp56
 70
     1
102
RTVSPost2010Prop57
140
1.0
102
RTVSPost2010PropOp57
 70
     1
102
RTVSPropertyOp0
 70
     1
102
RTVSPropertyOp1
 70
     1
102
RTVSPropertyOp2
 70
     1
102
RTVSPropertyOp3
 70
     1
102
RTVSPropertyOp4
 70
     1
102
RTVSPropertyOp5
 70
     1
102
RTVSPropertyOp6
 70
     1
102
RTVSPropertyOp7
 70
     1
102
RTVSPropertyOp8
 70
     1
102
RTVSPropertyOp9
 70
     1
102
RTVSPropertyOp10
 70
     1
102
RTVSPropertyOp11
 70
     1
102
RTVSPropertyOp12
 70
     1
102
RTVSPropertyOp13
 70
     1
102
RTVSPropertyOp14
 70
     1
102
RTVSPropertyOp15
 70
     1
102
RTVSPropertyOp16
 70
     1
102
RTVSPropertyOp17
 70
     1
102
RTVSPropertyOp18
 70
     1
102
RTVSPropertyOp19
 70
     1
102
RTVSPropertyOp20
 70
     1
102
RTVSPropertyOp21
 70
     1
102
RTVSPropertyOp22
 70
     1
102
RTVSPropertyOp23
 70
     1
102
RTVSPropertyOp24
 70
     1
102
RTVSPropertyOp25
 70
     1
102
RTVSPropertyOp26
 70
     1
102
RTVSPropertyOp27
 70
     1
102
RTVSPropertyOp28
 70
     1
102
RTVSPropertyOp29
 70
     1
102
RTVSPropertyOp30
 70
     1
102
RTVSPropertyOp31
 70
     1
102
RTVSPropertyOp32
 70
     1
102
RTVSPropertyOp33
 70
     1
102
RTVSPropertyOp34
 70
     1
102
RTVSPropertyOp35
 70
     1
102
RTVSPropertyOp36
 70
     1
102
RTVSPropertyOp37
 70
     1
102
RTVSPropertyOp38
 70
     1
102
RTVSPropertyOp39
 70
     1
102
RTVSPropertyOp40
 70
     1
102
RTVSPropertyOp41
 70
     1
102
RTVSPropertyOp42
 70
     1
102
RTVSPropertyOp43
 70
     1
102
RTVSPropertyOp44
 70
     1
102
RTVSPropertyOp45
 70
     1
102
RTVSPropertyOp46
 70
     1
102
RTVSPropertyOp47
 70
     1
102
RTVSPropertyOp48
 70
     1
102
RTVSPropertyOp49
 70
     1
102
RTVSPropertyOp50
 70
     1
102
RTVSPropertyOp51
 70
     0
102
RTVSPropertyOp52
 70
     0
102
RTVSPropertyOp53
 70
     1
102
RTVSPropertyOp54
 70
     1
102
RTVSPropertyOp55
 70
     1
102
RTVSPropertyOp56
 70
     1
102
RTVSPropertyOp57
 70
     1
102
RTVSPropertyOp58
 70
     1
102
RTVSPropertyOp59
 70
     1
102
RTVSPropertyOp60
 70
     1
102
RTVSPropertyOp61
 70
     1
102
RTVSPropertyOp62
 70
     1
  0
XRECORD
  5
E99
102
{ACAD_REACTORS
330
E98
102
}
330
E98
100
AcDbXrecord
280
     1
102
RTVSPost2010Prop28
280
     0
102
RTVSPost2010PropOp28
 70
     1
102
RTVSPost2010Prop29
280
     1
102
RTVSPost2010PropOp29
 70
     1
102
RTVSPost2010Prop30
280
     1
102
RTVSPost2010PropOp30
 70
     1
102
RTVSPost2010Prop31
280
     0
102
RTVSPost2010PropOp31
 70
     1
102
RTVSPost2010Prop32
280
     0
102
RTVSPost2010PropOp32
 70
     1
102
RTVSPost2010Prop33
280
     0
102
RTVSPost2010PropOp33
 70
     1
102
RTVSPost2010Prop34
280
     0
102
RTVSPost2010PropOp34
 70
     1
102
RTVSPost2010Prop35
280
     0
102
RTVSPost2010PropOp35
 70
     1
102
RTVSPost2010Prop36
280
     0
102
RTVSPost2010PropOp36
 70
     1
102
RTVSPost2010Prop37
 90
       50
102
RTVSPost2010PropOp37
 70
     1
102
RTVSPost2010Prop38
140
0.0
102
RTVSPost2010PropOp38
 70
     1
102
RTVSPost2010Prop39
140
1.0
102
RTVSPost2010PropOp39
 70
     1
102
RTVSPost2010Prop40
 90
        0
102
RTVSPost2010PropOp40
 70
     1
102
RTVSPost2010Prop41ColorIndex
 90
       18
102
RTVSPost2010Prop41ColorRGB
 90
        0
102
RTVSPost2010PropOp41
 70
     1
102
RTVSPost2010Prop42
 90
       50
102
RTVSPost2010PropOp42
 70
     1
102
RTVSPost2010Prop43
 90
        3
102
RTVSPost2010PropOp43
 70
     1
102
RTVSPost2010Prop44ColorIndex
 90
        5
102
RTVSPost2010Prop44ColorRGB
 90
      255
102
RTVSPost2010PropOp44
 70
     1
102
RTVSPost2010Prop45
280
     0
102
RTVSPost2010PropOp45
 70
     1
102
RTVSPost2010Prop46
 90
       50
102
RTVSPost2010PropOp46
 70
     1
102
RTVSPost2010Prop47
 90
       50
102
RTVSPost2010PropOp47
 70
     1
102
RTVSPost2010Prop48
 90
       50
102
RTVSPost2010PropOp48
 70
     1
102
RTVSPost2010Prop49
280
     0
102
RTVSPost2010PropOp49
 70
     1
102
RTVSPost2010Prop50
 90
       50
102
RTVSPost2010PropOp50
 70
     1
102
RTVSPost2010Prop51ColorIndex
 90
      256
102
RTVSPost2010Prop51ColorRGB
 90
-16777216
102
RTVSPost2010PropOp51
 70
     0
102
RTVSPost2010Prop52
140
1.0
102
RTVSPost2010PropOp52
 70
     0
102
RTVSPost2010Prop53
 90
        2
102
RTVSPost2010PropOp53
 70
     1
102
RTVSPost2010Prop54
  1
strokes_ogs.tif
102
RTVSPost2010PropOp54
 70
     1
102
RTVSPost2010Prop55
280
     0
102
RTVSPost2010PropOp55
 70
     1
102
RTVSPost2010Prop56
140
1.0
102
RTVSPost2010PropOp56
 70
     1
102
RTVSPost2010Prop57
140
1.0
102
RTVSPost2010PropOp57
 70
     1
102
RTVSPropertyOp0
 70
     1
102
RTVSPropertyOp1
 70
     1
102
RTVSPropertyOp2
 70
     1
102
RTVSPropertyOp3
 70
     1
102
RTVSPropertyOp4
 70
     1
102
RTVSPropertyOp5
 70
     1
102
RTVSPropertyOp6
 70
     1
102
RTVSPropertyOp7
 70
     1
102
RTVSPropertyOp8
 70
     1
102
RTVSPropertyOp9
 70
     1
102
RTVSPropertyOp10
 70
     1
102
RTVSPropertyOp11
 70
     1
102
RTVSPropertyOp12
 70
     1
102
RTVSPropertyOp13
 70
     1
102
RTVSPropertyOp14
 70
     1
102
RTVSPropertyOp15
 70
     1
102
RTVSPropertyOp16
 70
     1
102
RTVSPropertyOp17
 70
     1
102
RTVSPropertyOp18
 70
     1
102
RTVSPropertyOp19
 70
     1
102
RTVSPropertyOp20
 70
     1
102
RTVSPropertyOp21
 70
     1
102
RTVSPropertyOp22
 70
     1
102
RTVSPropertyOp23
 70
     1
102
RTVSPropertyOp24
 70
     1
102
RTVSPropertyOp25
 70
     1
102
RTVSPropertyOp26
 70
     1
102
RTVSPropertyOp27
 70
     1
102
RTVSPropertyOp28
 70
     1
102
RTVSPropertyOp29
 70
     1
102
RTVSPropertyOp30
 70
     1
102
RTVSPropertyOp31
 70
     1
102
RTVSPropertyOp32
 70
     1
102
RTVSPropertyOp33
 70
     1
102
RTVSPropertyOp34
 70
     1
102
RTVSPropertyOp35
 70
     1
102
RTVSPropertyOp36
 70
     1
102
RTVSPropertyOp37
 70
     1
102
RTVSPropertyOp38
 70
     1
102
RTVSPropertyOp39
 70
     1
102
RTVSPropertyOp40
 70
     1
102
RTVSPropertyOp41
 70
     1
102
RTVSPropertyOp42
 70
     1
102
RTVSPropertyOp43
 70
     1
102
RTVSPropertyOp44
 70
     1
102
RTVSPropertyOp45
 70
     1
102
RTVSPropertyOp46
 70
     1
102
RTVSPropertyOp47
 70
     1
102
RTVSPropertyOp48
 70
     1
102
RTVSPropertyOp49
 70
     1
102
RTVSPropertyOp50
 70
     1
102
RTVSPropertyOp51
 70
     0
102
RTVSPropertyOp52
 70
     0
102
RTVSPropertyOp53
 70
     1
102
RTVSPropertyOp54
 70
     1
102
RTVSPropertyOp55
 70
     1
102
RTVSPropertyOp56
 70
     1
102
RTVSPropertyOp57
 70
     1
102
RTVSPropertyOp58
 70
     1
102
RTVSPropertyOp59
 70
     1
102
RTVSPropertyOp60
 70
     1
102
RTVSPropertyOp61
 70
     1
102
RTVSPropertyOp62
 70
     1
  0
XRECORD
  5
E9B
102
{ACAD_REACTORS
330
E9A
102
}
330
E9A
100
AcDbXrecord
280
     1
102
RTVSPost2010Prop28
280
     0
102
RTVSPost2010PropOp28
 70
     1
102
RTVSPost2010Prop29
280
     1
102
RTVSPost2010PropOp29
 70
     1
102
RTVSPost2010Prop30
280
     1
102
RTVSPost2010PropOp30
 70
     1
102
RTVSPost2010Prop31
280
     0
102
RTVSPost2010PropOp31
 70
     1
102
RTVSPost2010Prop32
280
     0
102
RTVSPost2010PropOp32
 70
     1
102
RTVSPost2010Prop33
280
     0
102
RTVSPost2010PropOp33
 70
     1
102
RTVSPost2010Prop34
280
     0
102
RTVSPost2010PropOp34
 70
     1
102
RTVSPost2010Prop35
280
     0
102
RTVSPost2010PropOp35
 70
     1
102
RTVSPost2010Prop36
280
     0
102
RTVSPost2010PropOp36
 70
     1
102
RTVSPost2010Prop37
 90
       50
102
RTVSPost2010PropOp37
 70
     1
102
RTVSPost2010Prop38
140
0.0
102
RTVSPost2010PropOp38
 70
     1
102
RTVSPost2010Prop39
140
1.0
102
RTVSPost2010PropOp39
 70
     1
102
RTVSPost2010Prop40
 90
        0
102
RTVSPost2010PropOp40
 70
     1
102
RTVSPost2010Prop41ColorIndex
 90
       18
102
RTVSPost2010Prop41ColorRGB
 90
        0
102
RTVSPost2010PropOp41
 70
     1
102
RTVSPost2010Prop42
 90
       50
102
RTVSPost2010PropOp42
 70
     1
102
RTVSPost2010Prop43
 90
        3
102
RTVSPost2010PropOp43
 70
     1
102
RTVSPost2010Prop44ColorIndex
 90
        5
102
RTVSPost2010Prop44ColorRGB
 90
      255
102
RTVSPost2010PropOp44
 70
     1
102
RTVSPost2010Prop45
280
     0
102
RTVSPost2010PropOp45
 70
     1
102
RTVSPost2010Prop46
 90
       50
102
RTVSPost2010PropOp46
 70
     1
102
RTVSPost2010Prop47
 90
       50
102
RTVSPost2010PropOp47
 70
     1
102
RTVSPost2010Prop48
 90
       50
102
RTVSPost2010PropOp48
 70
     1
102
RTVSPost2010Prop49
280
     0
102
RTVSPost2010PropOp49
 70
     1
102
RTVSPost2010Prop50
 90
       50
102
RTVSPost2010PropOp50
 70
     1
102
RTVSPost2010Prop51ColorIndex
 90
      256
102
RTVSPost2010Prop51ColorRGB
 90
-16777216
102
RTVSPost2010PropOp51
 70
     0
102
RTVSPost2010Prop52
140
1.0
102
RTVSPost2010PropOp52
 70
     0
102
RTVSPost2010Prop53
 90
        2
102
RTVSPost2010PropOp53
 70
     1
102
RTVSPost2010Prop54
  1
strokes_ogs.tif
102
RTVSPost2010PropOp54
 70
     1
102
RTVSPost2010Prop55
280
     0
102
RTVSPost2010PropOp55
 70
     1
102
RTVSPost2010Prop56
140
1.0
102
RTVSPost2010PropOp56
 70
     1
102
RTVSPost2010Prop57
140
1.0
102
RTVSPost2010PropOp57
 70
     1
102
RTVSPropertyOp0
 70
     1
102
RTVSPropertyOp1
 70
     1
102
RTVSPropertyOp2
 70
     1
102
RTVSPropertyOp3
 70
     1
102
RTVSPropertyOp4
 70
     1
102
RTVSPropertyOp5
 70
     1
102
RTVSPropertyOp6
 70
     1
102
RTVSPropertyOp7
 70
     1
102
RTVSPropertyOp8
 70
     1
102
RTVSPropertyOp9
 70
     1
102
RTVSPropertyOp10
 70
     1
102
RTVSPropertyOp11
 70
     1
102
RTVSPropertyOp12
 70
     1
102
RTVSPropertyOp13
 70
     1
102
RTVSPropertyOp14
 70
     1
102
RTVSPropertyOp15
 70
     1
102
RTVSPropertyOp16
 70
     1
102
RTVSPropertyOp17
 70
     1
102
RTVSPropertyOp18
 70
     1
102
RTVSPropertyOp19
 70
     1
102
RTVSPropertyOp20
 70
     1
102
RTVSPropertyOp21
 70
     1
102
RTVSPropertyOp22
 70
     1
102
RTVSPropertyOp23
 70
     1
102
RTVSPropertyOp24
 70
     1
102
RTVSPropertyOp25
 70
     1
102
RTVSPropertyOp26
 70
     1
102
RTVSPropertyOp27
 70
     1
102
RTVSPropertyOp28
 70
     1
102
RTVSPropertyOp29
 70
     1
102
RTVSPropertyOp30
 70
     1
102
RTVSPropertyOp31
 70
     1
102
RTVSPropertyOp32
 70
     1
102
RTVSPropertyOp33
 70
     1
102
RTVSPropertyOp34
 70
     1
102
RTVSPropertyOp35
 70
     1
102
RTVSPropertyOp36
 70
     1
102
RTVSPropertyOp37
 70
     1
102
RTVSPropertyOp38
 70
     1
102
RTVSPropertyOp39
 70
     1
102
RTVSPropertyOp40
 70
     1
102
RTVSPropertyOp41
 70
     1
102
RTVSPropertyOp42
 70
     1
102
RTVSPropertyOp43
 70
     1
102
RTVSPropertyOp44
 70
     1
102
RTVSPropertyOp45
 70
     1
102
RTVSPropertyOp46
 70
     1
102
RTVSPropertyOp47
 70
     1
102
RTVSPropertyOp48
 70
     1
102
RTVSPropertyOp49
 70
     1
102
RTVSPropertyOp50
 70
     1
102
RTVSPropertyOp51
 70
     0
102
RTVSPropertyOp52
 70
     0
102
RTVSPropertyOp53
 70
     1
102
RTVSPropertyOp54
 70
     1
102
RTVSPropertyOp55
 70
     1
102
RTVSPropertyOp56
 70
     1
102
RTVSPropertyOp57
 70
     1
102
RTVSPropertyOp58
 70
     1
102
RTVSPropertyOp59
 70
     1
102
RTVSPropertyOp60
 70
     1
102
RTVSPropertyOp61
 70
     1
102
RTVSPropertyOp62
 70
     1
  0
XRECORD
  5
EA1
102
{ACAD_REACTORS
330
EA0
102
}
330
EA0
100
AcDbXrecord
280
     1
102
RTVSPost2010Prop28
280
     0
102
RTVSPost2010PropOp28
 70
     1
102
RTVSPost2010Prop29
280
     1
102
RTVSPost2010PropOp29
 70
     1
102
RTVSPost2010Prop30
280
     1
102
RTVSPost2010PropOp30
 70
     1
102
RTVSPost2010Prop31
280
     0
102
RTVSPost2010PropOp31
 70
     1
102
RTVSPost2010Prop32
280
     0
102
RTVSPost2010PropOp32
 70
     1
102
RTVSPost2010Prop33
280
     0
102
RTVSPost2010PropOp33
 70
     1
102
RTVSPost2010Prop34
280
     0
102
RTVSPost2010PropOp34
 70
     1
102
RTVSPost2010Prop35
280
     0
102
RTVSPost2010PropOp35
 70
     1
102
RTVSPost2010Prop36
280
     0
102
RTVSPost2010PropOp36
 70
     1
102
RTVSPost2010Prop37
 90
       50
102
RTVSPost2010PropOp37
 70
     1
102
RTVSPost2010Prop38
140
0.0
102
RTVSPost2010PropOp38
 70
     1
102
RTVSPost2010Prop39
140
1.0
102
RTVSPost2010PropOp39
 70
     1
102
RTVSPost2010Prop40
 90
        0
102
RTVSPost2010PropOp40
 70
     1
102
RTVSPost2010Prop41ColorIndex
 90
       18
102
RTVSPost2010Prop41ColorRGB
 90
        0
102
RTVSPost2010PropOp41
 70
     1
102
RTVSPost2010Prop42
 90
       50
102
RTVSPost2010PropOp42
 70
     1
102
RTVSPost2010Prop43
 90
        3
102
RTVSPost2010PropOp43
 70
     1
102
RTVSPost2010Prop44ColorIndex
 90
        5
102
RTVSPost2010Prop44ColorRGB
 90
      255
102
RTVSPost2010PropOp44
 70
     1
102
RTVSPost2010Prop45
280
     0
102
RTVSPost2010PropOp45
 70
     1
102
RTVSPost2010Prop46
 90
       50
102
RTVSPost2010PropOp46
 70
     1
102
RTVSPost2010Prop47
 90
       50
102
RTVSPost2010PropOp47
 70
     1
102
RTVSPost2010Prop48
 90
       50
102
RTVSPost2010PropOp48
 70
     1
102
RTVSPost2010Prop49
280
     0
102
RTVSPost2010PropOp49
 70
     1
102
RTVSPost2010Prop50
 90
       50
102
RTVSPost2010PropOp50
 70
     1
102
RTVSPost2010Prop51ColorIndex
 90
      256
102
RTVSPost2010Prop51ColorRGB
 90
-16777216
102
RTVSPost2010PropOp51
 70
     0
102
RTVSPost2010Prop52
140
1.0
102
RTVSPost2010PropOp52
 70
     0
102
RTVSPost2010Prop53
 90
        2
102
RTVSPost2010PropOp53
 70
     1
102
RTVSPost2010Prop54
  1
strokes_ogs.tif
102
RTVSPost2010PropOp54
 70
     1
102
RTVSPost2010Prop55
280
     0
102
RTVSPost2010PropOp55
 70
     1
102
RTVSPost2010Prop56
140
1.0
102
RTVSPost2010PropOp56
 70
     1
102
RTVSPost2010Prop57
140
1.0
102
RTVSPost2010PropOp57
 70
     1
102
RTVSPropertyOp0
 70
     1
102
RTVSPropertyOp1
 70
     1
102
RTVSPropertyOp2
 70
     1
102
RTVSPropertyOp3
 70
     1
102
RTVSPropertyOp4
 70
     1
102
RTVSPropertyOp5
 70
     1
102
RTVSPropertyOp6
 70
     1
102
RTVSPropertyOp7
 70
     1
102
RTVSPropertyOp8
 70
     1
102
RTVSPropertyOp9
 70
     1
102
RTVSPropertyOp10
 70
     1
102
RTVSPropertyOp11
 70
     1
102
RTVSPropertyOp12
 70
     1
102
RTVSPropertyOp13
 70
     1
102
RTVSPropertyOp14
 70
     1
102
RTVSPropertyOp15
 70
     1
102
RTVSPropertyOp16
 70
     1
102
RTVSPropertyOp17
 70
     1
102
RTVSPropertyOp18
 70
     1
102
RTVSPropertyOp19
 70
     1
102
RTVSPropertyOp20
 70
     1
102
RTVSPropertyOp21
 70
     1
102
RTVSPropertyOp22
 70
     1
102
RTVSPropertyOp23
 70
     1
102
RTVSPropertyOp24
 70
     1
102
RTVSPropertyOp25
 70
     1
102
RTVSPropertyOp26
 70
     1
102
RTVSPropertyOp27
 70
     1
102
RTVSPropertyOp28
 70
     1
102
RTVSPropertyOp29
 70
     1
102
RTVSPropertyOp30
 70
     1
102
RTVSPropertyOp31
 70
     1
102
RTVSPropertyOp32
 70
     1
102
RTVSPropertyOp33
 70
     1
102
RTVSPropertyOp34
 70
     1
102
RTVSPropertyOp35
 70
     1
102
RTVSPropertyOp36
 70
     1
102
RTVSPropertyOp37
 70
     1
102
RTVSPropertyOp38
 70
     1
102
RTVSPropertyOp39
 70
     1
102
RTVSPropertyOp40
 70
     1
102
RTVSPropertyOp41
 70
     1
102
RTVSPropertyOp42
 70
     1
102
RTVSPropertyOp43
 70
     1
102
RTVSPropertyOp44
 70
     1
102
RTVSPropertyOp45
 70
     1
102
RTVSPropertyOp46
 70
     1
102
RTVSPropertyOp47
 70
     1
102
RTVSPropertyOp48
 70
     1
102
RTVSPropertyOp49
 70
     1
102
RTVSPropertyOp50
 70
     1
102
RTVSPropertyOp51
 70
     0
102
RTVSPropertyOp52
 70
     0
102
RTVSPropertyOp53
 70
     1
102
RTVSPropertyOp54
 70
     1
102
RTVSPropertyOp55
 70
     1
102
RTVSPropertyOp56
 70
     1
102
RTVSPropertyOp57
 70
     1
102
RTVSPropertyOp58
 70
     1
102
RTVSPropertyOp59
 70
     1
102
RTVSPropertyOp60
 70
     1
102
RTVSPropertyOp61
 70
     1
102
RTVSPropertyOp62
 70
     1
  0
XRECORD
  5
EB5
102
{ACAD_REACTORS
330
EB4
102
}
330
EB4
100
AcDbXrecord
280
     1
102
RTVSPost2010Prop28
280
     0
102
RTVSPost2010PropOp28
 70
     0
102
RTVSPost2010Prop29
280
     1
102
RTVSPost2010PropOp29
 70
     0
102
RTVSPost2010Prop30
280
     1
102
RTVSPost2010PropOp30
 70
     0
102
RTVSPost2010Prop31
280
     0
102
RTVSPost2010PropOp31
 70
     0
102
RTVSPost2010Prop32
280
     0
102
RTVSPost2010PropOp32
 70
     0
102
RTVSPost2010Prop33
280
     0
102
RTVSPost2010PropOp33
 70
     0
102
RTVSPost2010Prop34
280
     0
102
RTVSPost2010PropOp34
 70
     0
102
RTVSPost2010Prop35
280
     0
102
RTVSPost2010PropOp35
 70
     0
102
RTVSPost2010Prop36
280
     0
102
RTVSPost2010PropOp36
 70
     0
102
RTVSPost2010Prop37
 90
       50
102
RTVSPost2010PropOp37
 70
     0
102
RTVSPost2010Prop38
140
0.0
102
RTVSPost2010PropOp38
 70
     0
102
RTVSPost2010Prop39
140
1.0
102
RTVSPost2010PropOp39
 70
     0
102
RTVSPost2010Prop40
 90
        0
102
RTVSPost2010PropOp40
 70
     0
102
RTVSPost2010Prop41ColorIndex
 90
       18
102
RTVSPost2010Prop41ColorRGB
 90
        0
102
RTVSPost2010PropOp41
 70
     0
102
RTVSPost2010Prop42
 90
       50
102
RTVSPost2010PropOp42
 70
     0
102
RTVSPost2010Prop43
 90
        3
102
RTVSPost2010PropOp43
 70
     0
102
RTVSPost2010Prop44ColorIndex
 90
        5
102
RTVSPost2010Prop44ColorRGB
 90
      255
102
RTVSPost2010PropOp44
 70
     0
102
RTVSPost2010Prop45
280
     0
102
RTVSPost2010PropOp45
 70
     0
102
RTVSPost2010Prop46
 90
       50
102
RTVSPost2010PropOp46
 70
     0
102
RTVSPost2010Prop47
 90
       50
102
RTVSPost2010PropOp47
 70
     0
102
RTVSPost2010Prop48
 90
       50
102
RTVSPost2010PropOp48
 70
     0
102
RTVSPost2010Prop49
280
     0
102
RTVSPost2010PropOp49
 70
     0
102
RTVSPost2010Prop50
 90
       50
102
RTVSPost2010PropOp50
 70
     0
102
RTVSPost2010Prop51ColorIndex
 90
      256
102
RTVSPost2010Prop51ColorRGB
 90
-16777216
102
RTVSPost2010PropOp51
 70
     0
102
RTVSPost2010Prop52
140
1.0
102
RTVSPost2010PropOp52
 70
     0
102
RTVSPost2010Prop53
 90
        2
102
RTVSPost2010PropOp53
 70
     0
102
RTVSPost2010Prop54
  1
strokes_ogs.tif
102
RTVSPost2010PropOp54
 70
     0
102
RTVSPost2010Prop55
280
     0
102
RTVSPost2010PropOp55
 70
     0
102
RTVSPost2010Prop56
140
1.0
102
RTVSPost2010PropOp56
 70
     0
102
RTVSPost2010Prop57
140
1.0
102
RTVSPost2010PropOp57
 70
     0
102
RTVSPropertyOp0
 70
     0
102
RTVSPropertyOp1
 70
     0
102
RTVSPropertyOp2
 70
     0
102
RTVSPropertyOp3
 70
     0
102
RTVSPropertyOp4
 70
     0
102
RTVSPropertyOp5
 70
     0
102
RTVSPropertyOp6
 70
     0
102
RTVSPropertyOp7
 70
     0
102
RTVSPropertyOp8
 70
     0
102
RTVSPropertyOp9
 70
     0
102
RTVSPropertyOp10
 70
     0
102
RTVSPropertyOp11
 70
     0
102
RTVSPropertyOp12
 70
     0
102
RTVSPropertyOp13
 70
     0
102
RTVSPropertyOp14
 70
     2
102
RTVSPropertyOp15
 70
     0
102
RTVSPropertyOp16
 70
     0
102
RTVSPropertyOp17
 70
     0
102
RTVSPropertyOp18
 70
     0
102
RTVSPropertyOp19
 70
     0
102
RTVSPropertyOp20
 70
     0
102
RTVSPropertyOp21
 70
     0
102
RTVSPropertyOp22
 70
     0
102
RTVSPropertyOp23
 70
     0
102
RTVSPropertyOp24
 70
     0
102
RTVSPropertyOp25
 70
     0
102
RTVSPropertyOp26
 70
     0
102
RTVSPropertyOp27
 70
     0
102
RTVSPropertyOp28
 70
     0
102
RTVSPropertyOp29
 70
     0
102
RTVSPropertyOp30
 70
     0
102
RTVSPropertyOp31
 70
     0
102
RTVSPropertyOp32
 70
     0
102
RTVSPropertyOp33
 70
     0
102
RTVSPropertyOp34
 70
     0
102
RTVSPropertyOp35
 70
     0
102
RTVSPropertyOp36
 70
     0
102
RTVSPropertyOp37
 70
     0
102
RTVSPropertyOp38
 70
     0
102
RTVSPropertyOp39
 70
     0
102
RTVSPropertyOp40
 70
     0
102
RTVSPropertyOp41
 70
     0
102
RTVSPropertyOp42
 70
     0
102
RTVSPropertyOp43
 70
     0
102
RTVSPropertyOp44
 70
     0
102
RTVSPropertyOp45
 70
     0
102
RTVSPropertyOp46
 70
     0
102
RTVSPropertyOp47
 70
     0
102
RTVSPropertyOp48
 70
     0
102
RTVSPropertyOp49
 70
     0
102
RTVSPropertyOp50
 70
     0
102
RTVSPropertyOp51
 70
     0
102
RTVSPropertyOp52
 70
     0
102
RTVSPropertyOp53
 70
     0
102
RTVSPropertyOp54
 70
     0
102
RTVSPropertyOp55
 70
     0
102
RTVSPropertyOp56
 70
     0
102
RTVSPropertyOp57
 70
     0
102
RTVSPropertyOp58
 70
     1
102
RTVSPropertyOp59
 70
     1
102
RTVSPropertyOp60
 70
     1
102
RTVSPropertyOp61
 70
     1
102
RTVSPropertyOp62
 70
     1
  0
XRECORD
  5
EAF
102
{ACAD_REACTORS
330
EAE
102
}
330
EAE
100
AcDbXrecord
280
     1
102
RTVSPost2010Prop28
280
     0
102
RTVSPost2010PropOp28
 70
     1
102
RTVSPost2010Prop29
280
     1
102
RTVSPost2010PropOp29
 70
     1
102
RTVSPost2010Prop30
280
     1
102
RTVSPost2010PropOp30
 70
     1
102
RTVSPost2010Prop31
280
     0
102
RTVSPost2010PropOp31
 70
     1
102
RTVSPost2010Prop32
280
     0
102
RTVSPost2010PropOp32
 70
     1
102
RTVSPost2010Prop33
280
     0
102
RTVSPost2010PropOp33
 70
     1
102
RTVSPost2010Prop34
280
     0
102
RTVSPost2010PropOp34
 70
     1
102
RTVSPost2010Prop35
280
     0
102
RTVSPost2010PropOp35
 70
     1
102
RTVSPost2010Prop36
280
     0
102
RTVSPost2010PropOp36
 70
     1
102
RTVSPost2010Prop37
 90
       50
102
RTVSPost2010PropOp37
 70
     1
102
RTVSPost2010Prop38
140
0.0
102
RTVSPost2010PropOp38
 70
     1
102
RTVSPost2010Prop39
140
1.0
102
RTVSPost2010PropOp39
 70
     1
102
RTVSPost2010Prop40
 90
        0
102
RTVSPost2010PropOp40
 70
     1
102
RTVSPost2010Prop41ColorIndex
 90
       18
102
RTVSPost2010Prop41ColorRGB
 90
        0
102
RTVSPost2010PropOp41
 70
     1
102
RTVSPost2010Prop42
 90
       50
102
RTVSPost2010PropOp42
 70
     1
102
RTVSPost2010Prop43
 90
        3
102
RTVSPost2010PropOp43
 70
     1
102
RTVSPost2010Prop44ColorIndex
 90
        5
102
RTVSPost2010Prop44ColorRGB
 90
      255
102
RTVSPost2010PropOp44
 70
     1
102
RTVSPost2010Prop45
280
     0
102
RTVSPost2010PropOp45
 70
     1
102
RTVSPost2010Prop46
 90
       50
102
RTVSPost2010PropOp46
 70
     1
102
RTVSPost2010Prop47
 90
       50
102
RTVSPost2010PropOp47
 70
     1
102
RTVSPost2010Prop48
 90
       50
102
RTVSPost2010PropOp48
 70
     1
102
RTVSPost2010Prop49
280
     0
102
RTVSPost2010PropOp49
 70
     1
102
RTVSPost2010Prop50
 90
       50
102
RTVSPost2010PropOp50
 70
     1
102
RTVSPost2010Prop51ColorIndex
 90
      256
102
RTVSPost2010Prop51ColorRGB
 90
-16777216
102
RTVSPost2010PropOp51
 70
     0
102
RTVSPost2010Prop52
140
1.0
102
RTVSPost2010PropOp52
 70
     0
102
RTVSPost2010Prop53
 90
        2
102
RTVSPost2010PropOp53
 70
     1
102
RTVSPost2010Prop54
  1
strokes_ogs.tif
102
RTVSPost2010PropOp54
 70
     1
102
RTVSPost2010Prop55
280
     0
102
RTVSPost2010PropOp55
 70
     1
102
RTVSPost2010Prop56
140
1.0
102
RTVSPost2010PropOp56
 70
     1
102
RTVSPost2010Prop57
140
1.0
102
RTVSPost2010PropOp57
 70
     1
102
RTVSPropertyOp0
 70
     1
102
RTVSPropertyOp1
 70
     1
102
RTVSPropertyOp2
 70
     1
102
RTVSPropertyOp3
 70
     1
102
RTVSPropertyOp4
 70
     1
102
RTVSPropertyOp5
 70
     1
102
RTVSPropertyOp6
 70
     1
102
RTVSPropertyOp7
 70
     1
102
RTVSPropertyOp8
 70
     1
102
RTVSPropertyOp9
 70
     1
102
RTVSPropertyOp10
 70
     1
102
RTVSPropertyOp11
 70
     1
102
RTVSPropertyOp12
 70
     1
102
RTVSPropertyOp13
 70
     1
102
RTVSPropertyOp14
 70
     1
102
RTVSPropertyOp15
 70
     1
102
RTVSPropertyOp16
 70
     1
102
RTVSPropertyOp17
 70
     1
102
RTVSPropertyOp18
 70
     1
102
RTVSPropertyOp19
 70
     1
102
RTVSPropertyOp20
 70
     1
102
RTVSPropertyOp21
 70
     1
102
RTVSPropertyOp22
 70
     1
102
RTVSPropertyOp23
 70
     1
102
RTVSPropertyOp24
 70
     1
102
RTVSPropertyOp25
 70
     1
102
RTVSPropertyOp26
 70
     1
102
RTVSPropertyOp27
 70
     1
102
RTVSPropertyOp28
 70
     1
102
RTVSPropertyOp29
 70
     1
102
RTVSPropertyOp30
 70
     1
102
RTVSPropertyOp31
 70
     1
102
RTVSPropertyOp32
 70
     1
102
RTVSPropertyOp33
 70
     1
102
RTVSPropertyOp34
 70
     1
102
RTVSPropertyOp35
 70
     1
102
RTVSPropertyOp36
 70
     1
102
RTVSPropertyOp37
 70
     1
102
RTVSPropertyOp38
 70
     1
102
RTVSPropertyOp39
 70
     1
102
RTVSPropertyOp40
 70
     1
102
RTVSPropertyOp41
 70
     1
102
RTVSPropertyOp42
 70
     1
102
RTVSPropertyOp43
 70
     1
102
RTVSPropertyOp44
 70
     1
102
RTVSPropertyOp45
 70
     1
102
RTVSPropertyOp46
 70
     1
102
RTVSPropertyOp47
 70
     1
102
RTVSPropertyOp48
 70
     1
102
RTVSPropertyOp49
 70
     1
102
RTVSPropertyOp50
 70
     1
102
RTVSPropertyOp51
 70
     0
102
RTVSPropertyOp52
 70
     0
102
RTVSPropertyOp53
 70
     1
102
RTVSPropertyOp54
 70
     1
102
RTVSPropertyOp55
 70
     1
102
RTVSPropertyOp56
 70
     1
102
RTVSPropertyOp57
 70
     1
102
RTVSPropertyOp58
 70
     1
102
RTVSPropertyOp59
 70
     1
102
RTVSPropertyOp60
 70
     1
102
RTVSPropertyOp61
 70
     1
102
RTVSPropertyOp62
 70
     1
  0
XRECORD
  5
EB7
102
{ACAD_REACTORS
330
EB6
102
}
330
EB6
100
AcDbXrecord
280
     1
102
RTVSPost2010Prop28
280
     0
102
RTVSPost2010PropOp28
 70
     0
102
RTVSPost2010Prop29
280
     1
102
RTVSPost2010PropOp29
 70
     0
102
RTVSPost2010Prop30
280
     1
102
RTVSPost2010PropOp30
 70
     0
102
RTVSPost2010Prop31
280
     0
102
RTVSPost2010PropOp31
 70
     0
102
RTVSPost2010Prop32
280
     0
102
RTVSPost2010PropOp32
 70
     0
102
RTVSPost2010Prop33
280
     0
102
RTVSPost2010PropOp33
 70
     0
102
RTVSPost2010Prop34
280
     0
102
RTVSPost2010PropOp34
 70
     0
102
RTVSPost2010Prop35
280
     0
102
RTVSPost2010PropOp35
 70
     0
102
RTVSPost2010Prop36
280
     0
102
RTVSPost2010PropOp36
 70
     0
102
RTVSPost2010Prop37
 90
       50
102
RTVSPost2010PropOp37
 70
     0
102
RTVSPost2010Prop38
140
0.0
102
RTVSPost2010PropOp38
 70
     0
102
RTVSPost2010Prop39
140
1.0
102
RTVSPost2010PropOp39
 70
     0
102
RTVSPost2010Prop40
 90
        0
102
RTVSPost2010PropOp40
 70
     0
102
RTVSPost2010Prop41ColorIndex
 90
       18
102
RTVSPost2010Prop41ColorRGB
 90
        0
102
RTVSPost2010PropOp41
 70
     0
102
RTVSPost2010Prop42
 90
       50
102
RTVSPost2010PropOp42
 70
     0
102
RTVSPost2010Prop43
 90
        3
102
RTVSPost2010PropOp43
 70
     0
102
RTVSPost2010Prop44ColorIndex
 90
        5
102
RTVSPost2010Prop44ColorRGB
 90
      255
102
RTVSPost2010PropOp44
 70
     0
102
RTVSPost2010Prop45
280
     0
102
RTVSPost2010PropOp45
 70
     0
102
RTVSPost2010Prop46
 90
       50
102
RTVSPost2010PropOp46
 70
     0
102
RTVSPost2010Prop47
 90
       50
102
RTVSPost2010PropOp47
 70
     0
102
RTVSPost2010Prop48
 90
       50
102
RTVSPost2010PropOp48
 70
     0
102
RTVSPost2010Prop49
280
     0
102
RTVSPost2010PropOp49
 70
     0
102
RTVSPost2010Prop50
 90
       50
102
RTVSPost2010PropOp50
 70
     0
102
RTVSPost2010Prop51ColorIndex
 90
      256
102
RTVSPost2010Prop51ColorRGB
 90
-16777216
102
RTVSPost2010PropOp51
 70
     0
102
RTVSPost2010Prop52
140
1.0
102
RTVSPost2010PropOp52
 70
     0
102
RTVSPost2010Prop53
 90
        2
102
RTVSPost2010PropOp53
 70
     0
102
RTVSPost2010Prop54
  1
strokes_ogs.tif
102
RTVSPost2010PropOp54
 70
     0
102
RTVSPost2010Prop55
280
     0
102
RTVSPost2010PropOp55
 70
     0
102
RTVSPost2010Prop56
140
1.0
102
RTVSPost2010PropOp56
 70
     0
102
RTVSPost2010Prop57
140
1.0
102
RTVSPost2010PropOp57
 70
     0
102
RTVSPropertyOp0
 70
     0
102
RTVSPropertyOp1
 70
     0
102
RTVSPropertyOp2
 70
     0
102
RTVSPropertyOp3
 70
     0
102
RTVSPropertyOp4
 70
     0
102
RTVSPropertyOp5
 70
     0
102
RTVSPropertyOp6
 70
     0
102
RTVSPropertyOp7
 70
     0
102
RTVSPropertyOp8
 70
     0
102
RTVSPropertyOp9
 70
     0
102
RTVSPropertyOp10
 70
     0
102
RTVSPropertyOp11
 70
     0
102
RTVSPropertyOp12
 70
     0
102
RTVSPropertyOp13
 70
     0
102
RTVSPropertyOp14
 70
     2
102
RTVSPropertyOp15
 70
     0
102
RTVSPropertyOp16
 70
     0
102
RTVSPropertyOp17
 70
     0
102
RTVSPropertyOp18
 70
     0
102
RTVSPropertyOp19
 70
     0
102
RTVSPropertyOp20
 70
     0
102
RTVSPropertyOp21
 70
     0
102
RTVSPropertyOp22
 70
     0
102
RTVSPropertyOp23
 70
     0
102
RTVSPropertyOp24
 70
     0
102
RTVSPropertyOp25
 70
     0
102
RTVSPropertyOp26
 70
     0
102
RTVSPropertyOp27
 70
     0
102
RTVSPropertyOp28
 70
     0
102
RTVSPropertyOp29
 70
     0
102
RTVSPropertyOp30
 70
     0
102
RTVSPropertyOp31
 70
     0
102
RTVSPropertyOp32
 70
     0
102
RTVSPropertyOp33
 70
     0
102
RTVSPropertyOp34
 70
     0
102
RTVSPropertyOp35
 70
     0
102
RTVSPropertyOp36
 70
     0
102
RTVSPropertyOp37
 70
     0
102
RTVSPropertyOp38
 70
     0
102
RTVSPropertyOp39
 70
     0
102
RTVSPropertyOp40
 70
     0
102
RTVSPropertyOp41
 70
     0
102
RTVSPropertyOp42
 70
     0
102
RTVSPropertyOp43
 70
     0
102
RTVSPropertyOp44
 70
     0
102
RTVSPropertyOp45
 70
     0
102
RTVSPropertyOp46
 70
     0
102
RTVSPropertyOp47
 70
     0
102
RTVSPropertyOp48
 70
     0
102
RTVSPropertyOp49
 70
     0
102
RTVSPropertyOp50
 70
     0
102
RTVSPropertyOp51
 70
     0
102
RTVSPropertyOp52
 70
     0
102
RTVSPropertyOp53
 70
     0
102
RTVSPropertyOp54
 70
     0
102
RTVSPropertyOp55
 70
     0
102
RTVSPropertyOp56
 70
     0
102
RTVSPropertyOp57
 70
     0
102
RTVSPropertyOp58
 70
     1
102
RTVSPropertyOp59
 70
     1
102
RTVSPropertyOp60
 70
     1
102
RTVSPropertyOp61
 70
     1
102
RTVSPropertyOp62
 70
     1
  0
XRECORD
  5
EA5
102
{ACAD_REACTORS
330
EA4
102
}
330
EA4
100
AcDbXrecord
280
     1
102
RTVSPost2010Prop28
280
     0
102
RTVSPost2010PropOp28
 70
     1
102
RTVSPost2010Prop29
280
     1
102
RTVSPost2010PropOp29
 70
     1
102
RTVSPost2010Prop30
280
     1
102
RTVSPost2010PropOp30
 70
     1
102
RTVSPost2010Prop31
280
     0
102
RTVSPost2010PropOp31
 70
     1
102
RTVSPost2010Prop32
280
     0
102
RTVSPost2010PropOp32
 70
     1
102
RTVSPost2010Prop33
280
     0
102
RTVSPost2010PropOp33
 70
     1
102
RTVSPost2010Prop34
280
     0
102
RTVSPost2010PropOp34
 70
     1
102
RTVSPost2010Prop35
280
     0
102
RTVSPost2010PropOp35
 70
     1
102
RTVSPost2010Prop36
280
     0
102
RTVSPost2010PropOp36
 70
     1
102
RTVSPost2010Prop37
 90
       50
102
RTVSPost2010PropOp37
 70
     1
102
RTVSPost2010Prop38
140
0.0
102
RTVSPost2010PropOp38
 70
     1
102
RTVSPost2010Prop39
140
1.0
102
RTVSPost2010PropOp39
 70
     1
102
RTVSPost2010Prop40
 90
        0
102
RTVSPost2010PropOp40
 70
     1
102
RTVSPost2010Prop41ColorIndex
 90
       18
102
RTVSPost2010Prop41ColorRGB
 90
        0
102
RTVSPost2010PropOp41
 70
     1
102
RTVSPost2010Prop42
 90
       50
102
RTVSPost2010PropOp42
 70
     1
102
RTVSPost2010Prop43
 90
        3
102
RTVSPost2010PropOp43
 70
     1
102
RTVSPost2010Prop44ColorIndex
 90
        5
102
RTVSPost2010Prop44ColorRGB
 90
      255
102
RTVSPost2010PropOp44
 70
     1
102
RTVSPost2010Prop45
280
     0
102
RTVSPost2010PropOp45
 70
     1
102
RTVSPost2010Prop46
 90
       50
102
RTVSPost2010PropOp46
 70
     1
102
RTVSPost2010Prop47
 90
       50
102
RTVSPost2010PropOp47
 70
     1
102
RTVSPost2010Prop48
 90
       50
102
RTVSPost2010PropOp48
 70
     1
102
RTVSPost2010Prop49
280
     0
102
RTVSPost2010PropOp49
 70
     1
102
RTVSPost2010Prop50
 90
       50
102
RTVSPost2010PropOp50
 70
     1
102
RTVSPost2010Prop51ColorIndex
 90
      256
102
RTVSPost2010Prop51ColorRGB
 90
-16777216
102
RTVSPost2010PropOp51
 70
     0
102
RTVSPost2010Prop52
140
1.0
102
RTVSPost2010PropOp52
 70
     0
102
RTVSPost2010Prop53
 90
        2
102
RTVSPost2010PropOp53
 70
     1
102
RTVSPost2010Prop54
  1
strokes_ogs.tif
102
RTVSPost2010PropOp54
 70
     1
102
RTVSPost2010Prop55
280
     0
102
RTVSPost2010PropOp55
 70
     1
102
RTVSPost2010Prop56
140
1.0
102
RTVSPost2010PropOp56
 70
     1
102
RTVSPost2010Prop57
140
1.0
102
RTVSPost2010PropOp57
 70
     1
102
RTVSPropertyOp0
 70
     1
102
RTVSPropertyOp1
 70
     1
102
RTVSPropertyOp2
 70
     1
102
RTVSPropertyOp3
 70
     1
102
RTVSPropertyOp4
 70
     1
102
RTVSPropertyOp5
 70
     1
102
RTVSPropertyOp6
 70
     1
102
RTVSPropertyOp7
 70
     1
102
RTVSPropertyOp8
 70
     1
102
RTVSPropertyOp9
 70
     1
102
RTVSPropertyOp10
 70
     1
102
RTVSPropertyOp11
 70
     1
102
RTVSPropertyOp12
 70
     1
102
RTVSPropertyOp13
 70
     1
102
RTVSPropertyOp14
 70
     1
102
RTVSPropertyOp15
 70
     1
102
RTVSPropertyOp16
 70
     1
102
RTVSPropertyOp17
 70
     1
102
RTVSPropertyOp18
 70
     1
102
RTVSPropertyOp19
 70
     1
102
RTVSPropertyOp20
 70
     1
102
RTVSPropertyOp21
 70
     1
102
RTVSPropertyOp22
 70
     1
102
RTVSPropertyOp23
 70
     1
102
RTVSPropertyOp24
 70
     1
102
RTVSPropertyOp25
 70
     1
102
RTVSPropertyOp26
 70
     1
102
RTVSPropertyOp27
 70
     1
102
RTVSPropertyOp28
 70
     1
102
RTVSPropertyOp29
 70
     1
102
RTVSPropertyOp30
 70
     1
102
RTVSPropertyOp31
 70
     1
102
RTVSPropertyOp32
 70
     1
102
RTVSPropertyOp33
 70
     1
102
RTVSPropertyOp34
 70
     1
102
RTVSPropertyOp35
 70
     1
102
RTVSPropertyOp36
 70
     1
102
RTVSPropertyOp37
 70
     1
102
RTVSPropertyOp38
 70
     1
102
RTVSPropertyOp39
 70
     1
102
RTVSPropertyOp40
 70
     1
102
RTVSPropertyOp41
 70
     1
102
RTVSPropertyOp42
 70
     1
102
RTVSPropertyOp43
 70
     1
102
RTVSPropertyOp44
 70
     1
102
RTVSPropertyOp45
 70
     1
102
RTVSPropertyOp46
 70
     1
102
RTVSPropertyOp47
 70
     1
102
RTVSPropertyOp48
 70
     1
102
RTVSPropertyOp49
 70
     1
102
RTVSPropertyOp50
 70
     1
102
RTVSPropertyOp51
 70
     0
102
RTVSPropertyOp52
 70
     0
102
RTVSPropertyOp53
 70
     1
102
RTVSPropertyOp54
 70
     1
102
RTVSPropertyOp55
 70
     1
102
RTVSPropertyOp56
 70
     1
102
RTVSPropertyOp57
 70
     1
102
RTVSPropertyOp58
 70
     1
102
RTVSPropertyOp59
 70
     1
102
RTVSPropertyOp60
 70
     1
102
RTVSPropertyOp61
 70
     1
102
RTVSPropertyOp62
 70
     1
  0
XRECORD
  5
EC3
102
{ACAD_REACTORS
330
EC2
102
}
330
EC2
100
AcDbXrecord
280
     1
102
RTVSPost2010Prop28
280
     0
102
RTVSPost2010PropOp28
 70
     1
102
RTVSPost2010Prop29
280
     1
102
RTVSPost2010PropOp29
 70
     1
102
RTVSPost2010Prop30
280
     1
102
RTVSPost2010PropOp30
 70
     1
102
RTVSPost2010Prop31
280
     0
102
RTVSPost2010PropOp31
 70
     1
102
RTVSPost2010Prop32
280
     0
102
RTVSPost2010PropOp32
 70
     1
102
RTVSPost2010Prop33
280
     0
102
RTVSPost2010PropOp33
 70
     1
102
RTVSPost2010Prop34
280
     0
102
RTVSPost2010PropOp34
 70
     1
102
RTVSPost2010Prop35
280
     0
102
RTVSPost2010PropOp35
 70
     1
102
RTVSPost2010Prop36
280
     0
102
RTVSPost2010PropOp36
 70
     1
102
RTVSPost2010Prop37
 90
       50
102
RTVSPost2010PropOp37
 70
     1
102
RTVSPost2010Prop38
140
0.0
102
RTVSPost2010PropOp38
 70
     1
102
RTVSPost2010Prop39
140
1.0
102
RTVSPost2010PropOp39
 70
     1
102
RTVSPost2010Prop40
 90
        0
102
RTVSPost2010PropOp40
 70
     1
102
RTVSPost2010Prop41ColorIndex
 90
       18
102
RTVSPost2010Prop41ColorRGB
 90
        0
102
RTVSPost2010PropOp41
 70
     1
102
RTVSPost2010Prop42
 90
       50
102
RTVSPost2010PropOp42
 70
     1
102
RTVSPost2010Prop43
 90
        3
102
RTVSPost2010PropOp43
 70
     1
102
RTVSPost2010Prop44ColorIndex
 90
        5
102
RTVSPost2010Prop44ColorRGB
 90
      255
102
RTVSPost2010PropOp44
 70
     1
102
RTVSPost2010Prop45
280
     0
102
RTVSPost2010PropOp45
 70
     1
102
RTVSPost2010Prop46
 90
       50
102
RTVSPost2010PropOp46
 70
     1
102
RTVSPost2010Prop47
 90
       50
102
RTVSPost2010PropOp47
 70
     1
102
RTVSPost2010Prop48
 90
       50
102
RTVSPost2010PropOp48
 70
     1
102
RTVSPost2010Prop49
280
     0
102
RTVSPost2010PropOp49
 70
     1
102
RTVSPost2010Prop50
 90
       50
102
RTVSPost2010PropOp50
 70
     1
102
RTVSPost2010Prop51ColorIndex
 90
      256
102
RTVSPost2010Prop51ColorRGB
 90
-16777216
102
RTVSPost2010PropOp51
 70
     0
102
RTVSPost2010Prop52
140
1.0
102
RTVSPost2010PropOp52
 70
     0
102
RTVSPost2010Prop53
 90
        2
102
RTVSPost2010PropOp53
 70
     1
102
RTVSPost2010Prop54
  1
strokes_ogs.tif
102
RTVSPost2010PropOp54
 70
     1
102
RTVSPost2010Prop55
280
     0
102
RTVSPost2010PropOp55
 70
     1
102
RTVSPost2010Prop56
140
1.0
102
RTVSPost2010PropOp56
 70
     1
102
RTVSPost2010Prop57
140
1.0
102
RTVSPost2010PropOp57
 70
     1
102
RTVSPropertyOp0
 70
     1
102
RTVSPropertyOp1
 70
     1
102
RTVSPropertyOp2
 70
     1
102
RTVSPropertyOp3
 70
     1
102
RTVSPropertyOp4
 70
     1
102
RTVSPropertyOp5
 70
     1
102
RTVSPropertyOp6
 70
     1
102
RTVSPropertyOp7
 70
     1
102
RTVSPropertyOp8
 70
     1
102
RTVSPropertyOp9
 70
     1
102
RTVSPropertyOp10
 70
     1
102
RTVSPropertyOp11
 70
     1
102
RTVSPropertyOp12
 70
     1
102
RTVSPropertyOp13
 70
     1
102
RTVSPropertyOp14
 70
     1
102
RTVSPropertyOp15
 70
     1
102
RTVSPropertyOp16
 70
     1
102
RTVSPropertyOp17
 70
     1
102
RTVSPropertyOp18
 70
     1
102
RTVSPropertyOp19
 70
     1
102
RTVSPropertyOp20
 70
     1
102
RTVSPropertyOp21
 70
     1
102
RTVSPropertyOp22
 70
     1
102
RTVSPropertyOp23
 70
     1
102
RTVSPropertyOp24
 70
     1
102
RTVSPropertyOp25
 70
     1
102
RTVSPropertyOp26
 70
     1
102
RTVSPropertyOp27
 70
     1
102
RTVSPropertyOp28
 70
     1
102
RTVSPropertyOp29
 70
     1
102
RTVSPropertyOp30
 70
     1
102
RTVSPropertyOp31
 70
     1
102
RTVSPropertyOp32
 70
     1
102
RTVSPropertyOp33
 70
     1
102
RTVSPropertyOp34
 70
     1
102
RTVSPropertyOp35
 70
     1
102
RTVSPropertyOp36
 70
     1
102
RTVSPropertyOp37
 70
     1
102
RTVSPropertyOp38
 70
     1
102
RTVSPropertyOp39
 70
     1
102
RTVSPropertyOp40
 70
     1
102
RTVSPropertyOp41
 70
     1
102
RTVSPropertyOp42
 70
     1
102
RTVSPropertyOp43
 70
     1
102
RTVSPropertyOp44
 70
     1
102
RTVSPropertyOp45
 70
     1
102
RTVSPropertyOp46
 70
     1
102
RTVSPropertyOp47
 70
     1
102
RTVSPropertyOp48
 70
     1
102
RTVSPropertyOp49
 70
     1
102
RTVSPropertyOp50
 70
     1
102
RTVSPropertyOp51
 70
     0
102
RTVSPropertyOp52
 70
     0
102
RTVSPropertyOp53
 70
     1
102
RTVSPropertyOp54
 70
     1
102
RTVSPropertyOp55
 70
     1
102
RTVSPropertyOp56
 70
     1
102
RTVSPropertyOp57
 70
     1
102
RTVSPropertyOp58
 70
     1
102
RTVSPropertyOp59
 70
     1
102
RTVSPropertyOp60
 70
     1
102
RTVSPropertyOp61
 70
     1
102
RTVSPropertyOp62
 70
     1
  0
XRECORD
  5
EC1
102
{ACAD_REACTORS
330
EC0
102
}
330
EC0
100
AcDbXrecord
280
     1
102
RTVSPost2010Prop28
280
     0
102
RTVSPost2010PropOp28
 70
     1
102
RTVSPost2010Prop29
280
     1
102
RTVSPost2010PropOp29
 70
     1
102
RTVSPost2010Prop30
280
     1
102
RTVSPost2010PropOp30
 70
     1
102
RTVSPost2010Prop31
280
     0
102
RTVSPost2010PropOp31
 70
     1
102
RTVSPost2010Prop32
280
     0
102
RTVSPost2010PropOp32
 70
     1
102
RTVSPost2010Prop33
280
     0
102
RTVSPost2010PropOp33
 70
     1
102
RTVSPost2010Prop34
280
     0
102
RTVSPost2010PropOp34
 70
     1
102
RTVSPost2010Prop35
280
     0
102
RTVSPost2010PropOp35
 70
     1
102
RTVSPost2010Prop36
280
     0
102
RTVSPost2010PropOp36
 70
     1
102
RTVSPost2010Prop37
 90
       50
102
RTVSPost2010PropOp37
 70
     1
102
RTVSPost2010Prop38
140
0.0
102
RTVSPost2010PropOp38
 70
     1
102
RTVSPost2010Prop39
140
1.0
102
RTVSPost2010PropOp39
 70
     1
102
RTVSPost2010Prop40
 90
        0
102
RTVSPost2010PropOp40
 70
     1
102
RTVSPost2010Prop41ColorIndex
 90
       18
102
RTVSPost2010Prop41ColorRGB
 90
        0
102
RTVSPost2010PropOp41
 70
     1
102
RTVSPost2010Prop42
 90
       50
102
RTVSPost2010PropOp42
 70
     1
102
RTVSPost2010Prop43
 90
        3
102
RTVSPost2010PropOp43
 70
     1
102
RTVSPost2010Prop44ColorIndex
 90
        5
102
RTVSPost2010Prop44ColorRGB
 90
      255
102
RTVSPost2010PropOp44
 70
     1
102
RTVSPost2010Prop45
280
     0
102
RTVSPost2010PropOp45
 70
     1
102
RTVSPost2010Prop46
 90
       50
102
RTVSPost2010PropOp46
 70
     1
102
RTVSPost2010Prop47
 90
       50
102
RTVSPost2010PropOp47
 70
     1
102
RTVSPost2010Prop48
 90
       50
102
RTVSPost2010PropOp48
 70
     1
102
RTVSPost2010Prop49
280
     0
102
RTVSPost2010PropOp49
 70
     1
102
RTVSPost2010Prop50
 90
       50
102
RTVSPost2010PropOp50
 70
     1
102
RTVSPost2010Prop51ColorIndex
 90
      256
102
RTVSPost2010Prop51ColorRGB
 90
-16777216
102
RTVSPost2010PropOp51
 70
     0
102
RTVSPost2010Prop52
140
1.0
102
RTVSPost2010PropOp52
 70
     0
102
RTVSPost2010Prop53
 90
        2
102
RTVSPost2010PropOp53
 70
     1
102
RTVSPost2010Prop54
  1
strokes_ogs.tif
102
RTVSPost2010PropOp54
 70
     1
102
RTVSPost2010Prop55
280
     0
102
RTVSPost2010PropOp55
 70
     1
102
RTVSPost2010Prop56
140
1.0
102
RTVSPost2010PropOp56
 70
     1
102
RTVSPost2010Prop57
140
1.0
102
RTVSPost2010PropOp57
 70
     1
102
RTVSPropertyOp0
 70
     1
102
RTVSPropertyOp1
 70
     1
102
RTVSPropertyOp2
 70
     1
102
RTVSPropertyOp3
 70
     1
102
RTVSPropertyOp4
 70
     1
102
RTVSPropertyOp5
 70
     1
102
RTVSPropertyOp6
 70
     1
102
RTVSPropertyOp7
 70
     1
102
RTVSPropertyOp8
 70
     1
102
RTVSPropertyOp9
 70
     1
102
RTVSPropertyOp10
 70
     1
102
RTVSPropertyOp11
 70
     1
102
RTVSPropertyOp12
 70
     1
102
RTVSPropertyOp13
 70
     1
102
RTVSPropertyOp14
 70
     1
102
RTVSPropertyOp15
 70
     1
102
RTVSPropertyOp16
 70
     1
102
RTVSPropertyOp17
 70
     1
102
RTVSPropertyOp18
 70
     1
102
RTVSPropertyOp19
 70
     1
102
RTVSPropertyOp20
 70
     1
102
RTVSPropertyOp21
 70
     1
102
RTVSPropertyOp22
 70
     1
102
RTVSPropertyOp23
 70
     1
102
RTVSPropertyOp24
 70
     1
102
RTVSPropertyOp25
 70
     1
102
RTVSPropertyOp26
 70
     1
102
RTVSPropertyOp27
 70
     1
102
RTVSPropertyOp28
 70
     1
102
RTVSPropertyOp29
 70
     1
102
RTVSPropertyOp30
 70
     1
102
RTVSPropertyOp31
 70
     1
102
RTVSPropertyOp32
 70
     1
102
RTVSPropertyOp33
 70
     1
102
RTVSPropertyOp34
 70
     1
102
RTVSPropertyOp35
 70
     1
102
RTVSPropertyOp36
 70
     1
102
RTVSPropertyOp37
 70
     1
102
RTVSPropertyOp38
 70
     1
102
RTVSPropertyOp39
 70
     1
102
RTVSPropertyOp40
 70
     1
102
RTVSPropertyOp41
 70
     1
102
RTVSPropertyOp42
 70
     1
102
RTVSPropertyOp43
 70
     1
102
RTVSPropertyOp44
 70
     1
102
RTVSPropertyOp45
 70
     1
102
RTVSPropertyOp46
 70
     1
102
RTVSPropertyOp47
 70
     1
102
RTVSPropertyOp48
 70
     1
102
RTVSPropertyOp49
 70
     1
102
RTVSPropertyOp50
 70
     1
102
RTVSPropertyOp51
 70
     0
102
RTVSPropertyOp52
 70
     0
102
RTVSPropertyOp53
 70
     1
102
RTVSPropertyOp54
 70
     1
102
RTVSPropertyOp55
 70
     1
102
RTVSPropertyOp56
 70
     1
102
RTVSPropertyOp57
 70
     1
102
RTVSPropertyOp58
 70
     1
102
RTVSPropertyOp59
 70
     1
102
RTVSPropertyOp60
 70
     1
102
RTVSPropertyOp61
 70
     1
102
RTVSPropertyOp62
 70
     1
  0
XRECORD
  5
EBB
102
{ACAD_REACTORS
330
EBA
102
}
330
EBA
100
AcDbXrecord
280
     1
102
RTVSPost2010Prop28
280
     0
102
RTVSPost2010PropOp28
 70
     1
102
RTVSPost2010Prop29
280
     1
102
RTVSPost2010PropOp29
 70
     1
102
RTVSPost2010Prop30
280
     1
102
RTVSPost2010PropOp30
 70
     1
102
RTVSPost2010Prop31
280
     0
102
RTVSPost2010PropOp31
 70
     1
102
RTVSPost2010Prop32
280
     0
102
RTVSPost2010PropOp32
 70
     1
102
RTVSPost2010Prop33
280
     0
102
RTVSPost2010PropOp33
 70
     1
102
RTVSPost2010Prop34
280
     0
102
RTVSPost2010PropOp34
 70
     1
102
RTVSPost2010Prop35
280
     0
102
RTVSPost2010PropOp35
 70
     1
102
RTVSPost2010Prop36
280
     0
102
RTVSPost2010PropOp36
 70
     1
102
RTVSPost2010Prop37
 90
       50
102
RTVSPost2010PropOp37
 70
     1
102
RTVSPost2010Prop38
140
0.0
102
RTVSPost2010PropOp38
 70
     1
102
RTVSPost2010Prop39
140
1.0
102
RTVSPost2010PropOp39
 70
     1
102
RTVSPost2010Prop40
 90
        0
102
RTVSPost2010PropOp40
 70
     1
102
RTVSPost2010Prop41ColorIndex
 90
       18
102
RTVSPost2010Prop41ColorRGB
 90
        0
102
RTVSPost2010PropOp41
 70
     1
102
RTVSPost2010Prop42
 90
       50
102
RTVSPost2010PropOp42
 70
     1
102
RTVSPost2010Prop43
 90
        3
102
RTVSPost2010PropOp43
 70
     1
102
RTVSPost2010Prop44ColorIndex
 90
        5
102
RTVSPost2010Prop44ColorRGB
 90
      255
102
RTVSPost2010PropOp44
 70
     1
102
RTVSPost2010Prop45
280
     0
102
RTVSPost2010PropOp45
 70
     1
102
RTVSPost2010Prop46
 90
       50
102
RTVSPost2010PropOp46
 70
     1
102
RTVSPost2010Prop47
 90
       50
102
RTVSPost2010PropOp47
 70
     1
102
RTVSPost2010Prop48
 90
       50
102
RTVSPost2010PropOp48
 70
     1
102
RTVSPost2010Prop49
280
     0
102
RTVSPost2010PropOp49
 70
     1
102
RTVSPost2010Prop50
 90
       50
102
RTVSPost2010PropOp50
 70
     1
102
RTVSPost2010Prop51ColorIndex
 90
      256
102
RTVSPost2010Prop51ColorRGB
 90
-16777216
102
RTVSPost2010PropOp51
 70
     0
102
RTVSPost2010Prop52
140
1.0
102
RTVSPost2010PropOp52
 70
     0
102
RTVSPost2010Prop53
 90
        2
102
RTVSPost2010PropOp53
 70
     1
102
RTVSPost2010Prop54
  1
strokes_ogs.tif
102
RTVSPost2010PropOp54
 70
     1
102
RTVSPost2010Prop55
280
     0
102
RTVSPost2010PropOp55
 70
     1
102
RTVSPost2010Prop56
140
1.0
102
RTVSPost2010PropOp56
 70
     1
102
RTVSPost2010Prop57
140
1.0
102
RTVSPost2010PropOp57
 70
     1
102
RTVSPropertyOp0
 70
     1
102
RTVSPropertyOp1
 70
     1
102
RTVSPropertyOp2
 70
     1
102
RTVSPropertyOp3
 70
     1
102
RTVSPropertyOp4
 70
     1
102
RTVSPropertyOp5
 70
     1
102
RTVSPropertyOp6
 70
     1
102
RTVSPropertyOp7
 70
     1
102
RTVSPropertyOp8
 70
     1
102
RTVSPropertyOp9
 70
     1
102
RTVSPropertyOp10
 70
     1
102
RTVSPropertyOp11
 70
     1
102
RTVSPropertyOp12
 70
     1
102
RTVSPropertyOp13
 70
     1
102
RTVSPropertyOp14
 70
     1
102
RTVSPropertyOp15
 70
     1
102
RTVSPropertyOp16
 70
     1
102
RTVSPropertyOp17
 70
     1
102
RTVSPropertyOp18
 70
     1
102
RTVSPropertyOp19
 70
     1
102
RTVSPropertyOp20
 70
     1
102
RTVSPropertyOp21
 70
     1
102
RTVSPropertyOp22
 70
     1
102
RTVSPropertyOp23
 70
     1
102
RTVSPropertyOp24
 70
     1
102
RTVSPropertyOp25
 70
     1
102
RTVSPropertyOp26
 70
     1
102
RTVSPropertyOp27
 70
     1
102
RTVSPropertyOp28
 70
     1
102
RTVSPropertyOp29
 70
     1
102
RTVSPropertyOp30
 70
     1
102
RTVSPropertyOp31
 70
     1
102
RTVSPropertyOp32
 70
     1
102
RTVSPropertyOp33
 70
     1
102
RTVSPropertyOp34
 70
     1
102
RTVSPropertyOp35
 70
     1
102
RTVSPropertyOp36
 70
     1
102
RTVSPropertyOp37
 70
     1
102
RTVSPropertyOp38
 70
     1
102
RTVSPropertyOp39
 70
     1
102
RTVSPropertyOp40
 70
     1
102
RTVSPropertyOp41
 70
     1
102
RTVSPropertyOp42
 70
     1
102
RTVSPropertyOp43
 70
     1
102
RTVSPropertyOp44
 70
     1
102
RTVSPropertyOp45
 70
     1
102
RTVSPropertyOp46
 70
     1
102
RTVSPropertyOp47
 70
     1
102
RTVSPropertyOp48
 70
     1
102
RTVSPropertyOp49
 70
     1
102
RTVSPropertyOp50
 70
     1
102
RTVSPropertyOp51
 70
     0
102
RTVSPropertyOp52
 70
     0
102
RTVSPropertyOp53
 70
     1
102
RTVSPropertyOp54
 70
     1
102
RTVSPropertyOp55
 70
     1
102
RTVSPropertyOp56
 70
     1
102
RTVSPropertyOp57
 70
     1
102
RTVSPropertyOp58
 70
     1
102
RTVSPropertyOp59
 70
     1
102
RTVSPropertyOp60
 70
     1
102
RTVSPropertyOp61
 70
     1
102
RTVSPropertyOp62
 70
     1
  0
XRECORD
  5
EBD
102
{ACAD_REACTORS
330
EBC
102
}
330
EBC
100
AcDbXrecord
280
     1
102
RTVSPost2010Prop28
280
     0
102
RTVSPost2010PropOp28
 70
     1
102
RTVSPost2010Prop29
280
     1
102
RTVSPost2010PropOp29
 70
     1
102
RTVSPost2010Prop30
280
     1
102
RTVSPost2010PropOp30
 70
     1
102
RTVSPost2010Prop31
280
     0
102
RTVSPost2010PropOp31
 70
     1
102
RTVSPost2010Prop32
280
     0
102
RTVSPost2010PropOp32
 70
     1
102
RTVSPost2010Prop33
280
     0
102
RTVSPost2010PropOp33
 70
     1
102
RTVSPost2010Prop34
280
     0
102
RTVSPost2010PropOp34
 70
     1
102
RTVSPost2010Prop35
280
     0
102
RTVSPost2010PropOp35
 70
     1
102
RTVSPost2010Prop36
280
     0
102
RTVSPost2010PropOp36
 70
     1
102
RTVSPost2010Prop37
 90
       50
102
RTVSPost2010PropOp37
 70
     1
102
RTVSPost2010Prop38
140
0.0
102
RTVSPost2010PropOp38
 70
     1
102
RTVSPost2010Prop39
140
1.0
102
RTVSPost2010PropOp39
 70
     1
102
RTVSPost2010Prop40
 90
        0
102
RTVSPost2010PropOp40
 70
     1
102
RTVSPost2010Prop41ColorIndex
 90
       18
102
RTVSPost2010Prop41ColorRGB
 90
        0
102
RTVSPost2010PropOp41
 70
     1
102
RTVSPost2010Prop42
 90
       50
102
RTVSPost2010PropOp42
 70
     1
102
RTVSPost2010Prop43
 90
        3
102
RTVSPost2010PropOp43
 70
     1
102
RTVSPost2010Prop44ColorIndex
 90
        5
102
RTVSPost2010Prop44ColorRGB
 90
      255
102
RTVSPost2010PropOp44
 70
     1
102
RTVSPost2010Prop45
280
     0
102
RTVSPost2010PropOp45
 70
     1
102
RTVSPost2010Prop46
 90
       50
102
RTVSPost2010PropOp46
 70
     1
102
RTVSPost2010Prop47
 90
       50
102
RTVSPost2010PropOp47
 70
     1
102
RTVSPost2010Prop48
 90
       50
102
RTVSPost2010PropOp48
 70
     1
102
RTVSPost2010Prop49
280
     0
102
RTVSPost2010PropOp49
 70
     1
102
RTVSPost2010Prop50
 90
       50
102
RTVSPost2010PropOp50
 70
     1
102
RTVSPost2010Prop51ColorIndex
 90
      256
102
RTVSPost2010Prop51ColorRGB
 90
-16777216
102
RTVSPost2010PropOp51
 70
     0
102
RTVSPost2010Prop52
140
1.0
102
RTVSPost2010PropOp52
 70
     0
102
RTVSPost2010Prop53
 90
        2
102
RTVSPost2010PropOp53
 70
     1
102
RTVSPost2010Prop54
  1
strokes_ogs.tif
102
RTVSPost2010PropOp54
 70
     1
102
RTVSPost2010Prop55
280
     0
102
RTVSPost2010PropOp55
 70
     1
102
RTVSPost2010Prop56
140
1.0
102
RTVSPost2010PropOp56
 70
     1
102
RTVSPost2010Prop57
140
1.0
102
RTVSPost2010PropOp57
 70
     1
102
RTVSPropertyOp0
 70
     1
102
RTVSPropertyOp1
 70
     1
102
RTVSPropertyOp2
 70
     1
102
RTVSPropertyOp3
 70
     1
102
RTVSPropertyOp4
 70
     1
102
RTVSPropertyOp5
 70
     1
102
RTVSPropertyOp6
 70
     1
102
RTVSPropertyOp7
 70
     1
102
RTVSPropertyOp8
 70
     1
102
RTVSPropertyOp9
 70
     1
102
RTVSPropertyOp10
 70
     1
102
RTVSPropertyOp11
 70
     1
102
RTVSPropertyOp12
 70
     1
102
RTVSPropertyOp13
 70
     1
102
RTVSPropertyOp14
 70
     1
102
RTVSPropertyOp15
 70
     1
102
RTVSPropertyOp16
 70
     1
102
RTVSPropertyOp17
 70
     1
102
RTVSPropertyOp18
 70
     1
102
RTVSPropertyOp19
 70
     1
102
RTVSPropertyOp20
 70
     1
102
RTVSPropertyOp21
 70
     1
102
RTVSPropertyOp22
 70
     1
102
RTVSPropertyOp23
 70
     1
102
RTVSPropertyOp24
 70
     1
102
RTVSPropertyOp25
 70
     1
102
RTVSPropertyOp26
 70
     1
102
RTVSPropertyOp27
 70
     1
102
RTVSPropertyOp28
 70
     1
102
RTVSPropertyOp29
 70
     1
102
RTVSPropertyOp30
 70
     1
102
RTVSPropertyOp31
 70
     1
102
RTVSPropertyOp32
 70
     1
102
RTVSPropertyOp33
 70
     1
102
RTVSPropertyOp34
 70
     1
102
RTVSPropertyOp35
 70
     1
102
RTVSPropertyOp36
 70
     1
102
RTVSPropertyOp37
 70
     1
102
RTVSPropertyOp38
 70
     1
102
RTVSPropertyOp39
 70
     1
102
RTVSPropertyOp40
 70
     1
102
RTVSPropertyOp41
 70
     1
102
RTVSPropertyOp42
 70
     1
102
RTVSPropertyOp43
 70
     1
102
RTVSPropertyOp44
 70
     1
102
RTVSPropertyOp45
 70
     1
102
RTVSPropertyOp46
 70
     1
102
RTVSPropertyOp47
 70
     1
102
RTVSPropertyOp48
 70
     1
102
RTVSPropertyOp49
 70
     1
102
RTVSPropertyOp50
 70
     1
102
RTVSPropertyOp51
 70
     0
102
RTVSPropertyOp52
 70
     0
102
RTVSPropertyOp53
 70
     1
102
RTVSPropertyOp54
 70
     1
102
RTVSPropertyOp55
 70
     1
102
RTVSPropertyOp56
 70
     1
102
RTVSPropertyOp57
 70
     1
102
RTVSPropertyOp58
 70
     1
102
RTVSPropertyOp59
 70
     1
102
RTVSPropertyOp60
 70
     1
102
RTVSPropertyOp61
 70
     1
102
RTVSPropertyOp62
 70
     1
  0
XRECORD
  5
EAD
102
{ACAD_REACTORS
330
EAC
102
}
330
EAC
100
AcDbXrecord
280
     1
102
RTVSPost2010Prop28
280
     0
102
RTVSPost2010PropOp28
 70
     1
102
RTVSPost2010Prop29
280
     1
102
RTVSPost2010PropOp29
 70
     1
102
RTVSPost2010Prop30
280
     1
102
RTVSPost2010PropOp30
 70
     1
102
RTVSPost2010Prop31
280
     0
102
RTVSPost2010PropOp31
 70
     1
102
RTVSPost2010Prop32
280
     0
102
RTVSPost2010PropOp32
 70
     1
102
RTVSPost2010Prop33
280
     0
102
RTVSPost2010PropOp33
 70
     1
102
RTVSPost2010Prop34
280
     0
102
RTVSPost2010PropOp34
 70
     1
102
RTVSPost2010Prop35
280
     0
102
RTVSPost2010PropOp35
 70
     1
102
RTVSPost2010Prop36
280
     0
102
RTVSPost2010PropOp36
 70
     1
102
RTVSPost2010Prop37
 90
       50
102
RTVSPost2010PropOp37
 70
     1
102
RTVSPost2010Prop38
140
0.0
102
RTVSPost2010PropOp38
 70
     1
102
RTVSPost2010Prop39
140
1.0
102
RTVSPost2010PropOp39
 70
     1
102
RTVSPost2010Prop40
 90
        0
102
RTVSPost2010PropOp40
 70
     1
102
RTVSPost2010Prop41ColorIndex
 90
       18
102
RTVSPost2010Prop41ColorRGB
 90
        0
102
RTVSPost2010PropOp41
 70
     1
102
RTVSPost2010Prop42
 90
       50
102
RTVSPost2010PropOp42
 70
     1
102
RTVSPost2010Prop43
 90
        3
102
RTVSPost2010PropOp43
 70
     1
102
RTVSPost2010Prop44ColorIndex
 90
        5
102
RTVSPost2010Prop44ColorRGB
 90
      255
102
RTVSPost2010PropOp44
 70
     1
102
RTVSPost2010Prop45
280
     0
102
RTVSPost2010PropOp45
 70
     1
102
RTVSPost2010Prop46
 90
       50
102
RTVSPost2010PropOp46
 70
     1
102
RTVSPost2010Prop47
 90
       50
102
RTVSPost2010PropOp47
 70
     1
102
RTVSPost2010Prop48
 90
       50
102
RTVSPost2010PropOp48
 70
     1
102
RTVSPost2010Prop49
280
     0
102
RTVSPost2010PropOp49
 70
     1
102
RTVSPost2010Prop50
 90
       50
102
RTVSPost2010PropOp50
 70
     1
102
RTVSPost2010Prop51ColorIndex
 90
      256
102
RTVSPost2010Prop51ColorRGB
 90
-16777216
102
RTVSPost2010PropOp51
 70
     0
102
RTVSPost2010Prop52
140
1.0
102
RTVSPost2010PropOp52
 70
     0
102
RTVSPost2010Prop53
 90
        2
102
RTVSPost2010PropOp53
 70
     1
102
RTVSPost2010Prop54
  1
strokes_ogs.tif
102
RTVSPost2010PropOp54
 70
     1
102
RTVSPost2010Prop55
280
     0
102
RTVSPost2010PropOp55
 70
     1
102
RTVSPost2010Prop56
140
1.0
102
RTVSPost2010PropOp56
 70
     1
102
RTVSPost2010Prop57
140
1.0
102
RTVSPost2010PropOp57
 70
     1
102
RTVSPropertyOp0
 70
     1
102
RTVSPropertyOp1
 70
     1
102
RTVSPropertyOp2
 70
     1
102
RTVSPropertyOp3
 70
     1
102
RTVSPropertyOp4
 70
     1
102
RTVSPropertyOp5
 70
     1
102
RTVSPropertyOp6
 70
     1
102
RTVSPropertyOp7
 70
     1
102
RTVSPropertyOp8
 70
     1
102
RTVSPropertyOp9
 70
     1
102
RTVSPropertyOp10
 70
     1
102
RTVSPropertyOp11
 70
     1
102
RTVSPropertyOp12
 70
     1
102
RTVSPropertyOp13
 70
     1
102
RTVSPropertyOp14
 70
     1
102
RTVSPropertyOp15
 70
     1
102
RTVSPropertyOp16
 70
     1
102
RTVSPropertyOp17
 70
     1
102
RTVSPropertyOp18
 70
     1
102
RTVSPropertyOp19
 70
     1
102
RTVSPropertyOp20
 70
     1
102
RTVSPropertyOp21
 70
     1
102
RTVSPropertyOp22
 70
     1
102
RTVSPropertyOp23
 70
     1
102
RTVSPropertyOp24
 70
     1
102
RTVSPropertyOp25
 70
     1
102
RTVSPropertyOp26
 70
     1
102
RTVSPropertyOp27
 70
     1
102
RTVSPropertyOp28
 70
     1
102
RTVSPropertyOp29
 70
     1
102
RTVSPropertyOp30
 70
     1
102
RTVSPropertyOp31
 70
     1
102
RTVSPropertyOp32
 70
     1
102
RTVSPropertyOp33
 70
     1
102
RTVSPropertyOp34
 70
     1
102
RTVSPropertyOp35
 70
     1
102
RTVSPropertyOp36
 70
     1
102
RTVSPropertyOp37
 70
     1
102
RTVSPropertyOp38
 70
     1
102
RTVSPropertyOp39
 70
     1
102
RTVSPropertyOp40
 70
     1
102
RTVSPropertyOp41
 70
     1
102
RTVSPropertyOp42
 70
     1
102
RTVSPropertyOp43
 70
     1
102
RTVSPropertyOp44
 70
     1
102
RTVSPropertyOp45
 70
     1
102
RTVSPropertyOp46
 70
     1
102
RTVSPropertyOp47
 70
     1
102
RTVSPropertyOp48
 70
     1
102
RTVSPropertyOp49
 70
     1
102
RTVSPropertyOp50
 70
     1
102
RTVSPropertyOp51
 70
     0
102
RTVSPropertyOp52
 70
     0
102
RTVSPropertyOp53
 70
     1
102
RTVSPropertyOp54
 70
     1
102
RTVSPropertyOp55
 70
     1
102
RTVSPropertyOp56
 70
     1
102
RTVSPropertyOp57
 70
     1
102
RTVSPropertyOp58
 70
     1
102
RTVSPropertyOp59
 70
     1
102
RTVSPropertyOp60
 70
     1
102
RTVSPropertyOp61
 70
     1
102
RTVSPropertyOp62
 70
     1
  0
XRECORD
  5
E9F
102
{ACAD_REACTORS
330
E9E
102
}
330
E9E
100
AcDbXrecord
280
     1
102
RTVSPost2010Prop28
280
     0
102
RTVSPost2010PropOp28
 70
     1
102
RTVSPost2010Prop29
280
     1
102
RTVSPost2010PropOp29
 70
     1
102
RTVSPost2010Prop30
280
     1
102
RTVSPost2010PropOp30
 70
     1
102
RTVSPost2010Prop31
280
     0
102
RTVSPost2010PropOp31
 70
     1
102
RTVSPost2010Prop32
280
     0
102
RTVSPost2010PropOp32
 70
     1
102
RTVSPost2010Prop33
280
     0
102
RTVSPost2010PropOp33
 70
     1
102
RTVSPost2010Prop34
280
     0
102
RTVSPost2010PropOp34
 70
     1
102
RTVSPost2010Prop35
280
     0
102
RTVSPost2010PropOp35
 70
     1
102
RTVSPost2010Prop36
280
     0
102
RTVSPost2010PropOp36
 70
     1
102
RTVSPost2010Prop37
 90
       50
102
RTVSPost2010PropOp37
 70
     1
102
RTVSPost2010Prop38
140
0.0
102
RTVSPost2010PropOp38
 70
     1
102
RTVSPost2010Prop39
140
1.0
102
RTVSPost2010PropOp39
 70
     1
102
RTVSPost2010Prop40
 90
        0
102
RTVSPost2010PropOp40
 70
     1
102
RTVSPost2010Prop41ColorIndex
 90
       18
102
RTVSPost2010Prop41ColorRGB
 90
        0
102
RTVSPost2010PropOp41
 70
     1
102
RTVSPost2010Prop42
 90
       50
102
RTVSPost2010PropOp42
 70
     1
102
RTVSPost2010Prop43
 90
        3
102
RTVSPost2010PropOp43
 70
     1
102
RTVSPost2010Prop44ColorIndex
 90
        5
102
RTVSPost2010Prop44ColorRGB
 90
      255
102
RTVSPost2010PropOp44
 70
     1
102
RTVSPost2010Prop45
280
     0
102
RTVSPost2010PropOp45
 70
     1
102
RTVSPost2010Prop46
 90
       50
102
RTVSPost2010PropOp46
 70
     1
102
RTVSPost2010Prop47
 90
       50
102
RTVSPost2010PropOp47
 70
     1
102
RTVSPost2010Prop48
 90
       50
102
RTVSPost2010PropOp48
 70
     1
102
RTVSPost2010Prop49
280
     0
102
RTVSPost2010PropOp49
 70
     1
102
RTVSPost2010Prop50
 90
       50
102
RTVSPost2010PropOp50
 70
     1
102
RTVSPost2010Prop51ColorIndex
 90
      256
102
RTVSPost2010Prop51ColorRGB
 90
-16777216
102
RTVSPost2010PropOp51
 70
     0
102
RTVSPost2010Prop52
140
1.0
102
RTVSPost2010PropOp52
 70
     0
102
RTVSPost2010Prop53
 90
        2
102
RTVSPost2010PropOp53
 70
     1
102
RTVSPost2010Prop54
  1
strokes_ogs.tif
102
RTVSPost2010PropOp54
 70
     1
102
RTVSPost2010Prop55
280
     0
102
RTVSPost2010PropOp55
 70
     1
102
RTVSPost2010Prop56
140
1.0
102
RTVSPost2010PropOp56
 70
     1
102
RTVSPost2010Prop57
140
1.0
102
RTVSPost2010PropOp57
 70
     1
102
RTVSPropertyOp0
 70
     1
102
RTVSPropertyOp1
 70
     1
102
RTVSPropertyOp2
 70
     1
102
RTVSPropertyOp3
 70
     1
102
RTVSPropertyOp4
 70
     1
102
RTVSPropertyOp5
 70
     1
102
RTVSPropertyOp6
 70
     1
102
RTVSPropertyOp7
 70
     1
102
RTVSPropertyOp8
 70
     1
102
RTVSPropertyOp9
 70
     1
102
RTVSPropertyOp10
 70
     1
102
RTVSPropertyOp11
 70
     1
102
RTVSPropertyOp12
 70
     1
102
RTVSPropertyOp13
 70
     1
102
RTVSPropertyOp14
 70
     1
102
RTVSPropertyOp15
 70
     1
102
RTVSPropertyOp16
 70
     1
102
RTVSPropertyOp17
 70
     1
102
RTVSPropertyOp18
 70
     1
102
RTVSPropertyOp19
 70
     1
102
RTVSPropertyOp20
 70
     1
102
RTVSPropertyOp21
 70
     1
102
RTVSPropertyOp22
 70
     1
102
RTVSPropertyOp23
 70
     1
102
RTVSPropertyOp24
 70
     1
102
RTVSPropertyOp25
 70
     1
102
RTVSPropertyOp26
 70
     1
102
RTVSPropertyOp27
 70
     1
102
RTVSPropertyOp28
 70
     1
102
RTVSPropertyOp29
 70
     1
102
RTVSPropertyOp30
 70
     1
102
RTVSPropertyOp31
 70
     1
102
RTVSPropertyOp32
 70
     1
102
RTVSPropertyOp33
 70
     1
102
RTVSPropertyOp34
 70
     1
102
RTVSPropertyOp35
 70
     1
102
RTVSPropertyOp36
 70
     1
102
RTVSPropertyOp37
 70
     1
102
RTVSPropertyOp38
 70
     1
102
RTVSPropertyOp39
 70
     1
102
RTVSPropertyOp40
 70
     1
102
RTVSPropertyOp41
 70
     1
102
RTVSPropertyOp42
 70
     1
102
RTVSPropertyOp43
 70
     1
102
RTVSPropertyOp44
 70
     1
102
RTVSPropertyOp45
 70
     1
102
RTVSPropertyOp46
 70
     1
102
RTVSPropertyOp47
 70
     1
102
RTVSPropertyOp48
 70
     1
102
RTVSPropertyOp49
 70
     1
102
RTVSPropertyOp50
 70
     1
102
RTVSPropertyOp51
 70
     0
102
RTVSPropertyOp52
 70
     0
102
RTVSPropertyOp53
 70
     1
102
RTVSPropertyOp54
 70
     1
102
RTVSPropertyOp55
 70
     1
102
RTVSPropertyOp56
 70
     1
102
RTVSPropertyOp57
 70
     1
102
RTVSPropertyOp58
 70
     1
102
RTVSPropertyOp59
 70
     1
102
RTVSPropertyOp60
 70
     1
102
RTVSPropertyOp61
 70
     1
102
RTVSPropertyOp62
 70
     1
  0
XRECORD
  5
EBF
102
{ACAD_REACTORS
330
EBE
102
}
330
EBE
100
AcDbXrecord
280
     1
102
RTVSPost2010Prop28
280
     0
102
RTVSPost2010PropOp28
 70
     1
102
RTVSPost2010Prop29
280
     1
102
RTVSPost2010PropOp29
 70
     1
102
RTVSPost2010Prop30
280
     1
102
RTVSPost2010PropOp30
 70
     1
102
RTVSPost2010Prop31
280
     0
102
RTVSPost2010PropOp31
 70
     1
102
RTVSPost2010Prop32
280
     0
102
RTVSPost2010PropOp32
 70
     1
102
RTVSPost2010Prop33
280
     0
102
RTVSPost2010PropOp33
 70
     1
102
RTVSPost2010Prop34
280
     0
102
RTVSPost2010PropOp34
 70
     1
102
RTVSPost2010Prop35
280
     0
102
RTVSPost2010PropOp35
 70
     1
102
RTVSPost2010Prop36
280
     0
102
RTVSPost2010PropOp36
 70
     1
102
RTVSPost2010Prop37
 90
       50
102
RTVSPost2010PropOp37
 70
     1
102
RTVSPost2010Prop38
140
0.0
102
RTVSPost2010PropOp38
 70
     1
102
RTVSPost2010Prop39
140
1.0
102
RTVSPost2010PropOp39
 70
     1
102
RTVSPost2010Prop40
 90
        0
102
RTVSPost2010PropOp40
 70
     1
102
RTVSPost2010Prop41ColorIndex
 90
       18
102
RTVSPost2010Prop41ColorRGB
 90
        0
102
RTVSPost2010PropOp41
 70
     1
102
RTVSPost2010Prop42
 90
       50
102
RTVSPost2010PropOp42
 70
     1
102
RTVSPost2010Prop43
 90
        3
102
RTVSPost2010PropOp43
 70
     1
102
RTVSPost2010Prop44ColorIndex
 90
        5
102
RTVSPost2010Prop44ColorRGB
 90
      255
102
RTVSPost2010PropOp44
 70
     1
102
RTVSPost2010Prop45
280
     0
102
RTVSPost2010PropOp45
 70
     1
102
RTVSPost2010Prop46
 90
       50
102
RTVSPost2010PropOp46
 70
     1
102
RTVSPost2010Prop47
 90
       50
102
RTVSPost2010PropOp47
 70
     1
102
RTVSPost2010Prop48
 90
       50
102
RTVSPost2010PropOp48
 70
     1
102
RTVSPost2010Prop49
280
     0
102
RTVSPost2010PropOp49
 70
     1
102
RTVSPost2010Prop50
 90
       50
102
RTVSPost2010PropOp50
 70
     1
102
RTVSPost2010Prop51ColorIndex
 90
      256
102
RTVSPost2010Prop51ColorRGB
 90
-16777216
102
RTVSPost2010PropOp51
 70
     0
102
RTVSPost2010Prop52
140
1.0
102
RTVSPost2010PropOp52
 70
     0
102
RTVSPost2010Prop53
 90
        2
102
RTVSPost2010PropOp53
 70
     1
102
RTVSPost2010Prop54
  1
strokes_ogs.tif
102
RTVSPost2010PropOp54
 70
     1
102
RTVSPost2010Prop55
280
     0
102
RTVSPost2010PropOp55
 70
     1
102
RTVSPost2010Prop56
140
1.0
102
RTVSPost2010PropOp56
 70
     1
102
RTVSPost2010Prop57
140
1.0
102
RTVSPost2010PropOp57
 70
     1
102
RTVSPropertyOp0
 70
     1
102
RTVSPropertyOp1
 70
     1
102
RTVSPropertyOp2
 70
     1
102
RTVSPropertyOp3
 70
     1
102
RTVSPropertyOp4
 70
     1
102
RTVSPropertyOp5
 70
     1
102
RTVSPropertyOp6
 70
     1
102
RTVSPropertyOp7
 70
     1
102
RTVSPropertyOp8
 70
     1
102
RTVSPropertyOp9
 70
     1
102
RTVSPropertyOp10
 70
     1
102
RTVSPropertyOp11
 70
     1
102
RTVSPropertyOp12
 70
     1
102
RTVSPropertyOp13
 70
     1
102
RTVSPropertyOp14
 70
     1
102
RTVSPropertyOp15
 70
     1
102
RTVSPropertyOp16
 70
     1
102
RTVSPropertyOp17
 70
     1
102
RTVSPropertyOp18
 70
     1
102
RTVSPropertyOp19
 70
     1
102
RTVSPropertyOp20
 70
     1
102
RTVSPropertyOp21
 70
     1
102
RTVSPropertyOp22
 70
     1
102
RTVSPropertyOp23
 70
     1
102
RTVSPropertyOp24
 70
     1
102
RTVSPropertyOp25
 70
     1
102
RTVSPropertyOp26
 70
     1
102
RTVSPropertyOp27
 70
     1
102
RTVSPropertyOp28
 70
     1
102
RTVSPropertyOp29
 70
     1
102
RTVSPropertyOp30
 70
     1
102
RTVSPropertyOp31
 70
     1
102
RTVSPropertyOp32
 70
     1
102
RTVSPropertyOp33
 70
     1
102
RTVSPropertyOp34
 70
     1
102
RTVSPropertyOp35
 70
     1
102
RTVSPropertyOp36
 70
     1
102
RTVSPropertyOp37
 70
     1
102
RTVSPropertyOp38
 70
     1
102
RTVSPropertyOp39
 70
     1
102
RTVSPropertyOp40
 70
     1
102
RTVSPropertyOp41
 70
     1
102
RTVSPropertyOp42
 70
     1
102
RTVSPropertyOp43
 70
     1
102
RTVSPropertyOp44
 70
     1
102
RTVSPropertyOp45
 70
     1
102
RTVSPropertyOp46
 70
     1
102
RTVSPropertyOp47
 70
     1
102
RTVSPropertyOp48
 70
     1
102
RTVSPropertyOp49
 70
     1
102
RTVSPropertyOp50
 70
     1
102
RTVSPropertyOp51
 70
     0
102
RTVSPropertyOp52
 70
     0
102
RTVSPropertyOp53
 70
     1
102
RTVSPropertyOp54
 70
     1
102
RTVSPropertyOp55
 70
     1
102
RTVSPropertyOp56
 70
     1
102
RTVSPropertyOp57
 70
     1
102
RTVSPropertyOp58
 70
     1
102
RTVSPropertyOp59
 70
     1
102
RTVSPropertyOp60
 70
     1
102
RTVSPropertyOp61
 70
     1
102
RTVSPropertyOp62
 70
     1
  0
ENDSEC
  0
EOF
