0
SECTION
2
HEADER
9
$INSUNITS
70
4
9
$ACADVER
1
AC1014
9
$HANDSEED
5
FFFF
0
ENDSEC
0
SECTION
2
TABLES
0
TABLE
2
VPORT
5
8
100
AcDbSymbolTable
0
ENDTAB
0
TABLE
2
LTYPE
5
5
100
AcDbSymbolTable
0
LTYPE
5
14
100
AcDbSymbolTableRecord
100
AcDbLinetypeTableRecord
2
BYBLOCK
70
0
0
LTYPE
5
15
100
AcDbSymbolTableRecord
100
AcDbLinetypeTableRecord
2
BYLAYER
70
0
0
ENDTAB
0
TABLE
2
LAYER
5
2
100
AcDbSymbolTable
70
2
0
LAYER
5
50
100
AcDbSymbolTableRecord
100
AcDbLayerTableRecord
2
0
70
0
6
CONTINUOUS
0
ENDTAB
0
TABLE
2
STYLE
5
3
100
AcDbSymbolTable
70
1
0
STYLE
5
11
100
AcDbSymbolTableRecord
100
AcDbTextStyleTableRecord
2
STANDARD
70
0
0
ENDTAB
0
TABLE
2
VIEW
5
6
100
AcDbSymbolTable
70
0
0
ENDTAB
0
TABLE
2
UCS
5
7
100
AcDbSymbolTable
70
0
0
ENDTAB
0
TABLE
2
APPID
5
9
100
AcDbSymbolTable
70
2
0
APPID
5
12
100
AcDbSymbolTableRecord
100
AcDbRegAppTableRecord
2
ACAD
70
0
0
ENDTAB
0
TABLE
2
DIMSTYLE
5
A
100
AcDbSymbolTable
70
1
0
ENDTAB
0
TABLE
2
BLOCK_RECORD
5
1
100
AcDbSymbolTable
70
1
0
BLOCK_RECORD
5
1F
100
AcDbSymbolTableRecord
100
AcDbBlockTableRecord
2
*MODEL_SPACE
0
BLOCK_RECORD
5
1B
100
AcDbSymbolTableRecord
100
AcDbBlockTableRecord
2
*PAPER_SPACE
0
ENDTAB
0
ENDSEC
0
SECTION
2
BLOCKS
0
BLOCK
5
20
100
AcDbEntity
100
AcDbBlockBegin
2
*MODEL_SPACE
0
ENDBLK
5
21
100
AcDbEntity
100
AcDbBlockEnd
0
BLOCK
5
1C
100
AcDbEntity
100
AcDbBlockBegin
2
*PAPER_SPACE
0
ENDBLK
5
1D
100
AcDbEntity
100
AcDbBlockEnd
0
ENDSEC
0
SECTION
2
ENTITIES
0
LWPOLYLINE
5
100
100
AcDbEntity
8
OUTER_PROFILES
100
AcDbPolyline
90
18
70
1
43
0.0
10
1033.9999949139101
20
20.96106156809774
42
-0.41421356237312978
10
1030.9999949139105
20
23.961061568097499
10
1030.9999949139101
20
62.9610615680986
42
-0.41421356237314189
10
1033.9999949139101
20
65.961061568098572
10
1038.9999949139101
20
65.961061568098557
10
1038.9999949139101
20
129.34424627239014
10
-1.4210854715202004e-13
20
129.34424627239014
10
-7.1054273576010019e-13
20
114.34424627239012
10
-1.4210854715202004e-13
20
109.88318470429263
10
-4.2632564145606011e-13
20
87.383184704292646
10
-1.4210854715202004e-13
20
82.92212313619514
10
-1.4210854715202004e-13
20
75.922123136195125
10
-1.4210854715202004e-13
20
71.46106156809762
10
0
20
15.461061568097501
10
-5.6843418860808015e-13
20
10.999999999999996
10
0
20
0
10
1038.9999949139101
20
8.8817841970012523e-15
10
1038.9999949139103
20
20.961061568097506
0
CIRCLE
5
101
100
AcDbEntity
8
INTERIOR_PROFILES
100
AcDbCircle
10
971.99999999999989
20
67.461061568098543
30
0
40
2.0000000000000284
0
CIRCLE
5
102
100
AcDbEntity
8
INTERIOR_PROFILES
100
AcDbCircle
10
1010.9999949139102
20
19.461061568097506
30
0
40
1.9999999999998863
0
CIRCLE
5
103
100
AcDbEntity
8
INTERIOR_PROFILES
100
AcDbCircle
10
50
20
19.461061568098614
30
0
40
2.0000000000000284
0
LWPOLYLINE
5
104
100
AcDbEntity
8
INTERIOR_PROFILES
100
AcDbPolyline
90
4
70
1
43
0.0
10
324.00000000000006
20
90.383184704292631
10
396
20
90.383184704292631
10
395.99999999999989
20
121.34424627239012
10
323.99999999999989
20
121.34424627239011
0
CIRCLE
5
105
100
AcDbEntity
8
INTERIOR_PROFILES
100
AcDbCircle
10
1010.9999949139101
20
67.461061568097549
30
0
40
1.9999999999998863
0
CIRCLE
5
106
100
AcDbEntity
8
INTERIOR_PROFILES
100
AcDbCircle
10
50
20
67.461061568098614
30
0
40
2.0000000000000284
0
LWPOLYLINE
5
107
100
AcDbEntity
8
INTERIOR_PROFILES
100
AcDbPolyline
90
4
70
1
43
0.0
10
84.000000000000057
20
90.383184704292631
10
156.00000000000009
20
90.383184704292631
10
155.99999999999994
20
125.34424627239012
10
83.999999999999915
20
125.34424627239012
0
LWPOLYLINE
5
108
100
AcDbEntity
8
INTERIOR_PROFILES
100
AcDbPolyline
90
4
70
1
43
0.0
10
563.99999999999989
20
125.34424627239012
10
564
20
90.383184704292631
10
636
20
90.383184704292631
10
635.99999999999989
20
125.34424627239012
0
LWPOLYLINE
5
109
100
AcDbEntity
8
INTERIOR_PROFILES
100
AcDbPolyline
90
4
70
1
43
0.0
10
803
20
125.34424627239012
10
803.00000000000011
20
90.383184704292631
10
875.00000000000011
20
90.383184704292631
10
875
20
125.34424627239012
0
CIRCLE
5
110
100
AcDbEntity
8
INTERIOR_PROFILES
100
AcDbCircle
10
571.99999999999591
20
67.461061568098543
30
0
40
2.0000000000000284
0
CIRCLE
5
111
100
AcDbEntity
8
INTERIOR_PROFILES
100
AcDbCircle
10
972
20
19.461061568097506
30
0
40
2.0000000000000284
0
CIRCLE
5
112
100
AcDbEntity
8
INTERIOR_PROFILES
100
AcDbCircle
10
571.99999999999602
20
19.461061568097506
30
0
40
2.0000000000000284
0
LINE
5
113
100
AcDbEntity
8
BEND
100
AcDbLine
10
-5.6843418860808015e-13
20
112.1137154883414
30
-6.8833827526759706e-14
11
1038.9999949139105
21
112.11371548834143
31
-7.2266927874791974e-14
0
LINE
5
114
100
AcDbEntity
8
BEND
100
AcDbLine
10
-4.2632564145606011e-13
20
85.152653920243878
30
1.4155343563970746e-14
11
1038.9999949139105
21
85.152653920243878
31
1.4155343563970746e-14
0
LINE
5
115
100
AcDbEntity
8
BEND
100
AcDbLine
10
1038.9999949139105
20
73.691592352146372
30
2.7026193349277291e-14
11
-1.4210854715202004e-13
21
73.691592352146372
31
2.7026193349277291e-14
0
LINE
5
116
100
AcDbEntity
8
BEND
100
AcDbLine
10
-4.2632564145606011e-13
20
13.23053078404878
30
2.1094237467877974e-14
11
1038.9999949139105
21
13.23053078404878
31
2.1094237467877974e-14
0
LINE
5
117
100
AcDbEntity
8
BEND_EXTENT
100
AcDbLine
10
323.99999999999989
20
109.88318470429263
30
-7.7715611723760958e-14
11
156.00000000000009
21
109.88318470429263
31
-7.7715611723760958e-14
0
LINE
5
118
100
AcDbEntity
8
BEND_EXTENT
100
AcDbLine
10
83.999999999999915
20
109.88318470429263
30
-7.7715611723760958e-14
11
-1.4210854715202004e-13
21
109.88318470429263
31
-6.6613381477509392e-14
0
LINE
5
119
100
AcDbEntity
8
BEND_EXTENT
100
AcDbLine
10
-4.2632564145606011e-13
20
87.383184704292646
30
8.8817841970012523e-15
11
1038.9999949139105
21
87.383184704292631
31
2.2204460492503131e-15
0
LINE
5
120
100
AcDbEntity
8
BEND_EXTENT
100
AcDbLine
10
1038.9999949139103
20
109.88318470429263
30
-7.3274719625260332e-14
11
875
21
109.88318470429263
31
-7.7715611723760958e-14
0
LINE
5
121
100
AcDbEntity
8
BEND_EXTENT
100
AcDbLine
10
803
20
109.88318470429263
30
-7.7715611723760958e-14
11
636
21
109.88318470429263
31
-7.7715611723760958e-14
0
LINE
5
122
100
AcDbEntity
8
BEND_EXTENT
100
AcDbLine
10
563.99999999999989
20
109.88318470429263
30
-7.7715611723760958e-14
11
395.99999999999994
21
109.88318470429263
31
-7.7715611723760958e-14
0
LINE
5
123
100
AcDbEntity
8
BEND_EXTENT
100
AcDbLine
10
-7.1054273576010019e-13
20
114.34424627239012
30
-4.8849813083506888e-14
11
83.999999999999915
21
114.34424627239011
31
-6.6613381477509392e-14
0
LINE
5
124
100
AcDbEntity
8
BEND_EXTENT
100
AcDbLine
10
874.99999999999989
20
114.34424627239014
30
-6.6613381477509392e-14
11
1038.9999949139103
21
114.34424627239014
31
-8.8817841970012523e-14
0
LINE
5
125
100
AcDbEntity
8
BEND_EXTENT
100
AcDbLine
10
155.9999999999998
20
114.34424627239012
30
-6.6613381477509392e-14
11
323.99999999999989
21
114.34424627239012
31
-6.6613381477509392e-14
0
LINE
5
126
100
AcDbEntity
8
BEND_EXTENT
100
AcDbLine
10
635.99999999999989
20
114.34424627239012
30
-6.6613381477509392e-14
11
802.99999999999977
21
114.34424627239014
31
-6.6613381477509392e-14
0
LINE
5
127
100
AcDbEntity
8
BEND_EXTENT
100
AcDbLine
10
395.99999999999989
20
114.34424627239012
30
-6.6613381477509392e-14
11
563.99999999999989
21
114.34424627239012
31
-6.6613381477509392e-14
0
LINE
5
128
100
AcDbEntity
8
BEND_EXTENT
100
AcDbLine
10
1038.9999949139101
20
82.92212313619514
30
1.8179902028236938e-14
11
-1.4210854715202004e-13
21
82.92212313619514
31
2.1233015345956119e-14
0
LINE
5
129
100
AcDbEntity
8
BEND_EXTENT
100
AcDbLine
10
-1.4210854715202004e-13
20
75.922123136195125
30
2.5396351688300456e-14
11
1038.9999949139105
21
75.922123136195125
31
2.2204460492503131e-14
0
LINE
5
130
100
AcDbEntity
8
BEND_EXTENT
100
AcDbLine
10
1038.9999949139101
20
71.46106156809762
30
2.6645352591003757e-14
11
-1.4210854715202004e-13
21
71.46106156809762
31
2.6645352591003757e-14
0
LINE
5
131
100
AcDbEntity
8
BEND_EXTENT
100
AcDbLine
10
1038.9999949139101
20
10.999999999999996
30
1.7763568394002505e-14
11
-5.6843418860808015e-13
21
10.999999999999996
31
1.7763568394002505e-14
0
LINE
5
132
100
AcDbEntity
8
BEND_EXTENT
100
AcDbLine
10
0
20
15.461061568097501
30
2.6645352591003757e-14
11
1038.9999949139103
21
15.461061568097509
31
2.6645352591003757e-14
0
ENDSEC
0
SECTION
2
OBJECTS
0
DICTIONARY
5
C
100
AcDbDictionary
3
ACAD_GROUP
350
D
3
ACAD_MLINESTYLE
350
17
0
DICTIONARY
5
D
100
AcDbDictionary
0
DICTIONARY
5
1A
330
C
100
AcDbDictionary
0
DICTIONARY
5
17
100
AcDbDictionary
0
ENDSEC
0
EOF
