0
SECTION
2
HEADER
9
$INSUNITS
70
1
9
$ACADVER
1
AC1014
9
$HANDSEED
5
FFFF
0
ENDSEC
0
SECTION
2
TABLES
0
TABLE
2
VPORT
5
8
100
AcDbSymbolTable
0
ENDTAB
0
TABLE
2
LTYPE
5
5
100
AcDbSymbolTable
0
LTYPE
5
14
100
AcDbSymbolTableRecord
100
AcDbLinetypeTableRecord
2
BYBLOCK
70
0
0
LTYPE
5
15
100
AcDbSymbolTableRecord
100
AcDbLinetypeTableRecord
2
BYLAYER
70
0
0
ENDTAB
0
TABLE
2
LAYER
5
2
100
AcDbSymbolTable
70
2
0
LAYER
5
50
100
AcDbSymbolTableRecord
100
AcDbLayerTableRecord
2
0
70
0
6
CONTINUOUS
0
ENDTAB
0
TABLE
2
STYLE
5
3
100
AcDbSymbolTable
70
1
0
STYLE
5
11
100
AcDbSymbolTableRecord
100
AcDbTextStyleTableRecord
2
STANDARD
70
0
0
ENDTAB
0
TABLE
2
VIEW
5
6
100
AcDbSymbolTable
70
0
0
ENDTAB
0
TABLE
2
UCS
5
7
100
AcDbSymbolTable
70
0
0
ENDTAB
0
TABLE
2
APPID
5
9
100
AcDbSymbolTable
70
2
0
APPID
5
12
100
AcDbSymbolTableRecord
100
AcDbRegAppTableRecord
2
ACAD
70
0
0
ENDTAB
0
TABLE
2
DIMSTYLE
5
A
100
AcDbSymbolTable
70
1
0
ENDTAB
0
TABLE
2
BLOCK_RECORD
5
1
100
AcDbSymbolTable
70
1
0
BLOCK_RECORD
5
1F
100
AcDbSymbolTableRecord
100
AcDbBlockTableRecord
2
*MODEL_SPACE
0
BLOCK_RECORD
5
1B
100
AcDbSymbolTableRecord
100
AcDbBlockTableRecord
2
*PAPER_SPACE
0
ENDTAB
0
ENDSEC
0
SECTION
2
BLOCKS
0
BLOCK
5
20
100
AcDbEntity
100
AcDbBlockBegin
2
*MODEL_SPACE
0
ENDBLK
5
21
100
AcDbEntity
100
AcDbBlockEnd
0
BLOCK
5
1C
100
AcDbEntity
100
AcDbBlockBegin
2
*PAPER_SPACE
0
ENDBLK
5
1D
100
AcDbEntity
100
AcDbBlockEnd
0
ENDSEC
0
SECTION
2
ENTITIES
0
CIRCLE
5
100
100
AcDbEntity
8
0
100
AcDbCircle
10
0
20
0
30
0
40
0.75
210
0
220
0
230
1
0
SPLINE
5
101
100
AcDbEntity
8
0
100
AcDbSpline
70
4
71
5
72
61
73
55
74
0
42
0.000000001
43
0.0000000001
44
0.0000000001
40
0
40
0
40
0
40
0
40
0
40
0
40
0.02
40
0.040000000000000001
40
0.059999999999999998
40
0.080000000000000002
40
0.10000000000000001
40
0.12000000000000001
40
0.14000000000000001
40
0.16
40
0.17999999999999999
40
0.19999999999999998
40
0.21999999999999997
40
0.23999999999999996
40
0.25999999999999995
40
0.27999999999999997
40
0.29999999999999999
40
0.32000000000000001
40
0.34000000000000002
40
0.36000000000000004
40
0.38000000000000006
40
0.40000000000000008
40
0.4200000000000001
40
0.44000000000000011
40
0.46000000000000013
40
0.48000000000000015
40
0.50000000000000011
40
0.52000000000000013
40
0.54000000000000015
40
0.56000000000000016
40
0.58000000000000018
40
0.6000000000000002
40
0.62000000000000022
40
0.64000000000000024
40
0.66000000000000025
40
0.68000000000000027
40
0.70000000000000029
40
0.72000000000000031
40
0.74000000000000032
40
0.76000000000000034
40
0.78000000000000036
40
0.80000000000000038
40
0.8200000000000004
40
0.84000000000000041
40
0.86000000000000043
40
0.88000000000000045
40
0.90000000000000047
40
0.92000000000000048
40
0.9400000000000005
40
0.96000000000000052
40
0.98000000000000054
40
1
40
1
40
1
40
1
40
1
40
1
41
1
41
1
41
1
41
1
41
1
41
1
41
1
41
1
41
1
41
1
41
1
41
1
41
1
41
1
41
1
41
1
41
1
41
1
41
1
41
1
41
1
41
1
41
1
41
1
41
1
41
1
41
1
41
1
41
1
41
1
41
1
41
1
41
1
41
1
41
1
41
1
41
1
41
1
41
1
41
1
41
1
41
1
41
1
41
1
41
1
41
1
41
1
41
1
41
1
41
1
41
1
41
1
41
1
41
1
41
1
10
-0.12018700281639054
20
0.21257337618789707
30
0
10
-0.12184854025000991
20
0.20474159925234572
30
0
10
-0.12520800714773631
20
0.189185574807955
30
0
10
-0.13035638127953098
20
0.1661741290400939
30
0
10
-0.13743938980784737
20
0.13613778071425855
30
0
10
-0.14667335708373364
20
0.09966315202154151
30
0
10
-0.15633457472692722
20
0.064239191027833556
30
0
10
-0.16651548782307535
20
0.029823129435459166
30
0
10
-0.17737077857766584
20
-0.0036608641656689579
30
0
10
-0.18912881774717877
20
-0.036325908225851793
30
0
10
-0.20211669835850302
20
-0.068342141239289805
30
0
10
-0.21673487191827531
20
-0.099898383589339307
30
0
10
-0.23338302818889703
20
-0.13110634412840796
30
0
10
-0.25240082845087392
20
-0.16192399564534529
30
0
10
-0.27399924361270939
20
-0.1920631606848856
30
0
10
-0.29820281855473724
20
-0.22092080357276137
30
0
10
-0.32476894834810144
20
-0.24745675181712382
30
0
10
-0.35317907541719373
20
-0.27023740399981339
30
0
10
-0.38266624700402307
20
-0.28776821988502754
30
0
10
-0.4122281682432502
20
-0.29874816673199173
30
0
10
-0.44063101026110546
20
-0.30237390831799998
30
0
10
-0.46645033471134839
20
-0.2985826450867422
30
0
10
-0.4880096297666866
20
-0.28842766925457902
30
0
10
-0.50379434451481198
20
-0.27389835559634002
30
0
10
-0.51322624098083469
20
-0.2573984074806292
30
0
10
-0.51720637698258065
20
-0.24135235508322472
30
0
10
-0.51906377297426554
20
-0.22770315645924188
30
0
10
-0.52296429335950623
20
-0.21788572174971962
30
0
10
-0.53164924643155198
20
-0.21290676343660922
30
0
10
-0.54452748224066549
20
-0.21338164793370393
30
0
10
-0.55912471870791514
20
-0.21948405597056808
30
0
10
-0.57269059867965955
20
-0.23086949383729291
30
0
10
-0.58290451737038584
20
-0.24669116550176548
30
0
10
-0.58789691804427502
20
-0.26568697604597608
30
0
10
-0.58650401437836386
20
-0.28623276054345603
30
0
10
-0.578338648455474
20
-0.30644446476181897
30
0
10
-0.56359194320523731
20
-0.32441599886710604
30
0
10
-0.54288172937978751
20
-0.33841549346584282
30
0
10
-0.51707141582165062
20
-0.34713806631106225
30
0
10
-0.48714859659030257
20
-0.34979512600719853
30
0
10
-0.45417707888782755
20
-0.34597419746203162
30
0
10
-0.4192324390908897
20
-0.33555563072052286
30
0
10
-0.38334340603125594
20
-0.31860617309453393
30
0
10
-0.34743301456404829
20
-0.29528603929245606
30
0
10
-0.31225357854964231
20
-0.26574322164632957
30
0
10
-0.27839849777147557
20
-0.23010541813936694
30
0
10
-0.24632370345869192
20
-0.18848326450933031
30
0
10
-0.21636525518499281
20
-0.14096973082156866
30
0
10
-0.18875816709714699
20
-0.08764125400768559
30
0
10
-0.16365435072838469
20
-0.028558246885749147
30
0
10
-0.14114062611436456
20
0.036234002441543359
30
0
10
-0.12523327413347224
20
0.092610382181177966
30
0
10
-0.11449041041818279
20
0.13743988436484819
30
0
10
-0.10785600197336111
20
0.16845757880737378
30
0
10
-0.10467067294043476
20
0.18424926594688826
30
0
0
SPLINE
5
102
100
AcDbEntity
8
0
100
AcDbSpline
70
4
71
5
72
31
73
25
74
0
42
0.000000001
43
0.0000000001
44
0.0000000001
40
0
40
0
40
0
40
0
40
0
40
0
40
0.050000000000000003
40
0.10000000000000001
40
0.15000000000000002
40
0.20000000000000001
40
0.25
40
0.29999999999999999
40
0.34999999999999998
40
0.39999999999999997
40
0.44999999999999996
40
0.49999999999999994
40
0.54999999999999993
40
0.59999999999999998
40
0.65000000000000002
40
0.70000000000000007
40
0.75000000000000011
40
0.80000000000000016
40
0.8500000000000002
40
0.90000000000000024
40
0.95000000000000029
40
1
40
1
40
1
40
1
40
1
40
1
41
1
41
1
41
1
41
1
41
1
41
1
41
1
41
1
41
1
41
1
41
1
41
1
41
1
41
1
41
1
41
1
41
1
41
1
41
1
41
1
41
1
41
1
41
1
41
1
41
1
10
0.031881098452661349
20
-0.161429845199516
30
0
10
0.032389031831282604
20
-0.15201141731162629
30
0
10
0.033159138872048272
20
-0.13304343933728019
30
0
10
0.033577022276524385
20
-0.10419811550360406
30
0
10
0.032653612848351589
20
-0.06494767241011315
30
0
10
0.028979137374684875
20
-0.014631466558573407
30
0
10
0.022688379653953407
20
0.036714700471673946
30
0
10
0.013637478551549427
20
0.088612965467330024
30
0
10
0.0016313655895845497
20
0.14024131435364398
30
0
10
-0.013576598284055831
20
0.1903151834913771
30
0
10
-0.032299481886818394
20
0.23722506311001507
30
0
10
-0.054931822579603384
20
0.2792021541296224
30
0
10
-0.081962430204141012
20
0.31447595830610553
30
0
10
-0.11398481186804366
20
0.34143409512882439
30
0
10
-0.1517121701498243
20
0.35880310011232652
30
0
10
-0.19546333142336864
20
0.36570048970681446
30
0
10
-0.24438750771408382
20
0.36172592348343779
30
0
10
-0.2961551403055343
20
0.34698090616327848
30
0
10
-0.34540980492424905
20
0.32233312377181261
30
0
10
-0.38885639952807138
20
0.2884418954952806
30
0
10
-0.42460840687480922
20
0.24579570673975987
30
0
10
-0.44638005983590667
20
0.20493390921048418
30
0
10
-0.45877269076309685
20
0.17057327171033013
30
0
10
-0.46529235287949272
20
0.14602209012114675
30
0
10
-0.46811665075576137
20
0.13333547696048656
30
0
0
SPLINE
5
103
100
AcDbEntity
8
0
100
AcDbSpline
70
4
71
5
72
21
73
15
74
0
42
0.000000001
43
0.0000000001
44
0.0000000001
40
0
40
0
40
0
40
0
40
0
40
0
40
0.10000000000000001
40
0.20000000000000001
40
0.30000000000000004
40
0.40000000000000002
40
0.5
40
0.59999999999999998
40
0.69999999999999996
40
0.79999999999999993
40
0.89999999999999991
40
1
40
1
40
1
40
1
40
1
40
1
41
1
41
1
41
1
41
1
41
1
41
1
41
1
41
1
41
1
41
1
41
1
41
1
41
1
41
1
41
1
10
0.031881098452661349
20
-0.161429845199516
30
0
10
0.036100843684325999
20
-0.15125618814982078
30
0
10
0.044696296129197684
20
-0.13091992517663181
30
0
10
0.058057356901560504
20
-0.10044868382338751
30
0
10
0.076823296921957912
20
-0.059887761434684932
30
0
10
0.10197190385523787
20
-0.0093064419141354448
30
0
10
0.12895599480986569
20
0.041144819207634305
30
0
10
0.15791477540497251
20
0.091456158123662715
30
0
10
0.18890452418963655
20
0.14162358705851302
30
0
10
0.22182317888340355
20
0.19165433792297656
30
0
10
0.25651592151497316
20
0.24155938078117242
30
0
10
0.28556836870207264
20
0.28139142368268061
30
0
10
0.30804086397013936
20
0.31121704863817334
30
0
10
0.32332117723022713
20
0.33107963693797776
30
0
10
0.3310359999690316
20
0.3410056404100768
30
0
0
SPLINE
5
104
100
AcDbEntity
8
0
100
AcDbSpline
70
4
71
5
72
21
73
15
74
0
42
0.000000001
43
0.0000000001
44
0.0000000001
40
0
40
0
40
0
40
0
40
0
40
0
40
0.10000000000000001
40
0.20000000000000001
40
0.30000000000000004
40
0.40000000000000002
40
0.5
40
0.59999999999999998
40
0.69999999999999996
40
0.79999999999999993
40
0.89999999999999991
40
1
40
1
40
1
40
1
40
1
40
1
41
1
41
1
41
1
41
1
41
1
41
1
41
1
41
1
41
1
41
1
41
1
41
1
41
1
41
1
41
1
10
0.30935701863736115
20
0.26709857325246661
30
0
10
0.30079009766155856
20
0.25643136751006079
30
0
10
0.28389600809520582
20
0.23501612348021489
30
0
10
0.25927410214826896
20
0.20265076949447594
30
0
10
0.22790726500681627
20
0.15900392569616273
30
0
10
0.1913026509880911
20
0.10356745482908125
30
0
10
0.15753943114336047
20
0.047173007580417328
30
0
10
0.12685701112944403
20
-0.010260131695269683
30
0
10
0.099399562402632147
20
-0.068780570421465612
30
0
10
0.075056915157544632
20
-0.12835116483524092
30
0
10
0.053601186770148988
20
-0.18889508428295737
30
0
10
0.038560311999291753
20
-0.23804622822367202
30
0
10
0.028398852209181064
20
-0.27528692333993038
30
0
10
0.022113872708491102
20
-0.30027903008207313
30
0
10
0.019093717215057062
20
-0.3128163284623135
30
0
0
LINE
5
105
100
AcDbEntity
8
0
100
AcDbLine
10
0.30935701863736115
20
0.26709857325246661
30
0
11
0.22249036221447532
21
-0.28465259286282268
31
0
0
SPLINE
5
106
100
AcDbEntity
8
0
100
AcDbSpline
70
4
71
5
72
21
73
15
74
0
42
0.000000001
43
0.0000000001
44
0.0000000001
40
0
40
0
40
0
40
0
40
0
40
0
40
0.10000000000000001
40
0.20000000000000001
40
0.30000000000000004
40
0.40000000000000002
40
0.5
40
0.59999999999999998
40
0.69999999999999996
40
0.79999999999999993
40
0.89999999999999991
40
1
40
1
40
1
40
1
40
1
40
1
41
1
41
1
41
1
41
1
41
1
41
1
41
1
41
1
41
1
41
1
41
1
41
1
41
1
41
1
41
1
10
0.22249036221447532
20
-0.28465259286282268
30
0
10
0.22220802001162471
20
-0.28644594656240557
30
0
10
0.22177651401236537
20
-0.29007027493413706
30
0
10
0.2215287745020037
20
-0.29561960773359686
30
0
10
0.2219976545048386
20
-0.30316354941853613
30
0
10
0.22393249736612447
20
-0.31237487916072121
30
0
10
0.22724919933299839
20
-0.32078112360474914
30
0
10
0.23198075449851946
20
-0.32779771677242825
30
0
10
0.23812668574877185
20
-0.33297965459259338
30
0
10
0.2455992071098024
20
-0.33618592841823297
30
0
10
0.25428040538758578
20
-0.33744719391631567
30
0
10
0.26210591747183587
20
-0.33698055993788051
30
0
10
0.26843750465288324
20
-0.33584413349002351
30
0
10
0.27286074567407403
20
-0.33474268276816999
30
0
10
0.27512291339672579
20
-0.33410599665822532
30
0
0
LINE
5
107
100
AcDbEntity
8
0
100
AcDbLine
10
0.27512291339672579
20
-0.33410599665822532
30
0
11
0.43054789675370608
21
-0.30090156839559767
31
0
0
LINE
5
108
100
AcDbEntity
8
0
100
AcDbLine
10
0.43054789675370608
20
-0.30090156839559767
30
0
11
0.43054789675370608
21
-0.28783174024966973
31
0
0
SPLINE
5
109
100
AcDbEntity
8
0
100
AcDbSpline
70
4
71
5
72
56
73
50
74
0
42
0.000000001
43
0.0000000001
44
0.0000000001
40
0
40
0
40
0
40
0
40
0
40
0
40
0.022222222222222223
40
0.044444444444444446
40
0.066666666666666666
40
0.088888888888888892
40
0.11111111111111112
40
0.13333333333333333
40
0.15555555555555556
40
0.17777777777777778
40
0.20000000000000001
40
0.22222222222222224
40
0.24444444444444446
40
0.26666666666666666
40
0.28888888888888886
40
0.31111111111111106
40
0.33333333333333326
40
0.35555555555555546
40
0.37777777777777766
40
0.39999999999999986
40
0.42222222222222205
40
0.44444444444444425
40
0.46666666666666645
40
0.48888888888888865
40
0.51111111111111085
40
0.5333333333333331
40
0.55555555555555536
40
0.57777777777777761
40
0.59999999999999987
40
0.62222222222222212
40
0.64444444444444438
40
0.66666666666666663
40
0.68888888888888888
40
0.71111111111111114
40
0.73333333333333339
40
0.75555555555555565
40
0.7777777777777779
40
0.80000000000000016
40
0.82222222222222241
40
0.84444444444444466
40
0.86666666666666692
40
0.88888888888888917
40
0.91111111111111143
40
0.93333333333333368
40
0.95555555555555594
40
0.97777777777777819
40
1
40
1
40
1
40
1
40
1
40
1
41
1
41
1
41
1
41
1
41
1
41
1
41
1
41
1
41
1
41
1
41
1
41
1
41
1
41
1
41
1
41
1
41
1
41
1
41
1
41
1
41
1
41
1
41
1
41
1
41
1
41
1
41
1
41
1
41
1
41
1
41
1
41
1
41
1
41
1
41
1
41
1
41
1
41
1
41
1
41
1
41
1
41
1
41
1
41
1
41
1
41
1
41
1
41
1
41
1
41
1
10
0.3310359999690316
20
0.3410056404100768
30
0
10
0.33281489627251237
20
0.34166461499722989
30
0
10
0.336462612915292
20
0.34305906233286648
30
0
10
0.34220394705308077
20
0.3453802396385442
30
0
10
0.35039912378009003
20
0.34893442198497149
30
0
10
0.36152458703119028
20
0.35414307779922927
30
0
10
0.37347336779127915
20
0.36011342037628313
30
0
10
0.38612200416054104
20
0.36683749304834712
30
0
10
0.39926915399797924
20
0.37429237358377393
30
0
10
0.41259235580643921
20
0.38245682063853642
30
0
10
0.42567021504384051
20
0.39126621787718352
30
0
10
0.4383513571193407
20
0.40033877277116292
30
0
10
0.45058970172690893
20
0.40914602337176342
30
0
10
0.46241615273164904
20
0.41706826652611328
30
0
10
0.47385694463961564
20
0.42349495872224996
30
0
10
0.48487148797482571
20
0.42790872411620662
30
0
10
0.49528968031276799
20
0.42996991773119264
30
0
10
0.50472808992660667
20
0.42961931036097178
30
0
10
0.51268082494813338
20
0.42703564439705427
30
0
10
0.51866005466475296
20
0.42255528221622379
30
0
10
0.52230823755052702
20
0.41660945233433722
30
0
10
0.52354896061585243
20
0.40964539128102423
30
0
10
0.52263298948689363
20
0.40208582671255844
30
0
10
0.51999111327761982
20
0.39435694459594306
30
0
10
0.51613191058351071
20
0.38689952252325371
30
0
10
0.51151705008764869
20
0.38019141238652221
30
0
10
0.50646037448888925
20
0.37475196559648655
30
0
10
0.50114633305139977
20
0.37102490793287274
30
0
10
0.49563813437681092
20
0.3692758705349844
30
0
10
0.48988775334708973
20
0.3694770121336598
30
0
10
0.48374944153050081
20
0.37121521732245971
30
0
10
0.47705955400150801
20
0.37385028564383666
30
0
10
0.46970901453913072
20
0.37665225637702249
30
0
10
0.46172322571142954
20
0.37895065299346065
30
0
10
0.45332673724713146
20
0.38026613035124751
30
0
10
0.4448546781866109
20
0.3802789321749922
30
0
10
0.43667175670456354
20
0.37880935972925861
30
0
10
0.42909610916016944
20
0.37579388239211164
30
0
10
0.42230262252910938
20
0.37126444017149862
30
0
10
0.41631376115675117
20
0.36532315334961318
30
0
10
0.41105794780140487
20
0.35811469431935128
30
0
10
0.40640853076149508
20
0.3497991311434217
30
0
10
0.40222927251705487
20
0.3405255238959683
30
0
10
0.39842016078891312
20
0.33040308518355122
30
0
10
0.39491492215924862
20
0.31950550271622891
30
0
10
0.3916730848373195
20
0.30787847884751302
30
0
10
0.38927391507596998
20
0.29801253467753069
30
0
10
0.38758056333667329
20
0.29029976454399598
30
0
10
0.38649874921280958
20
0.28501877852871677
30
0
10
0.3859696137711579
20
0.28234350078427689
30
0
0
SPLINE
5
110
100
AcDbEntity
8
0
100
AcDbSpline
70
4
71
5
72
26
73
20
74
0
42
0.000000001
43
0.0000000001
44
0.0000000001
40
0
40
0
40
0
40
0
40
0
40
0
40
0.066666666666666666
40
0.13333333333333333
40
0.20000000000000001
40
0.26666666666666666
40
0.33333333333333331
40
0.39999999999999997
40
0.46666666666666662
40
0.53333333333333333
40
0.59999999999999998
40
0.66666666666666663
40
0.73333333333333328
40
0.79999999999999993
40
0.86666666666666659
40
0.93333333333333324
40
1
40
1
40
1
40
1
40
1
40
1
41
1
41
1
41
1
41
1
41
1
41
1
41
1
41
1
41
1
41
1
41
1
41
1
41
1
41
1
41
1
41
1
41
1
41
1
41
1
41
1
10
-0.12018700281639054
20
0.21257337618789707
30
0
10
-0.12374993857703534
20
0.21843098018117837
30
0
10
-0.1310515477390892
20
0.22973059365887094
30
0
10
-0.1425311788755256
20
0.24543323487860247
30
0
10
-0.15889941684257908
20
0.26385836803088686
30
0
10
-0.18114044361584059
20
0.28258129154445771
30
0
10
-0.20511142504264318
20
0.29681978408012888
30
0
10
-0.23064506532230342
20
0.30637565461263083
30
0
10
-0.25738758080277169
20
0.31107370047123978
30
0
10
-0.28474318820707223
20
0.31080984160192737
30
0
10
-0.31199228002669482
20
0.30552714473767911
30
0
10
-0.33839471138166005
20
0.29521552501587472
30
0
10
-0.36328621622407797
20
0.27991514038569271
30
0
10
-0.38620739671953858
20
0.25975126359787176
30
0
10
-0.40692895588429356
20
0.23492270087593262
30
0
10
-0.4253606021014702
20
0.2056372320784374
30
0
10
-0.43827348819797612
20
0.17878849921018683
30
0
10
-0.44694249984544149
20
0.15678337654187985
30
0
10
-0.4522737473756418
20
0.14128885219156234
30
0
10
-0.4548273448691284
20
0.13333547696048656
30
0
0
LINE
5
111
100
AcDbEntity
8
0
100
AcDbLine
10
-0.4548273448691284
20
0.13333547696048656
30
0
11
-0.46811665075576137
21
0.13333547696048656
31
0
0
SPLINE
5
112
100
AcDbEntity
8
0
100
AcDbSpline
70
4
71
5
72
21
73
15
74
0
42
0.000000001
43
0.0000000001
44
0.0000000001
40
0
40
0
40
0
40
0
40
0
40
0
40
0.10000000000000001
40
0.20000000000000001
40
0.30000000000000004
40
0.40000000000000002
40
0.5
40
0.59999999999999998
40
0.69999999999999996
40
0.79999999999999993
40
0.89999999999999991
40
1
40
1
40
1
40
1
40
1
40
1
41
1
41
1
41
1
41
1
41
1
41
1
41
1
41
1
41
1
41
1
41
1
41
1
41
1
41
1
41
1
10
-0.10467067294043476
20
0.18424926594688826
30
0
10
-0.10144085733017925
20
0.17589944317872058
30
0
10
-0.095159209993410016
20
0.15901041923606998
30
0
10
-0.086270703194269896
20
0.13310873474460147
30
0
10
-0.075504749696869364
20
0.097418279958268655
30
0
10
-0.06397400438772935
20
0.050755167860193698
30
0
10
-0.054522453574928874
20
0.0018797513004391211
30
0
10
-0.04728893473253528
20
-0.049355695565661238
30
0
10
-0.042292424427850625
20
-0.10297136418459454
30
0
10
-0.039390077948722242
20
-0.15881526493026338
30
0
10
-0.038399115669343328
20
-0.21669291663102858
30
0
10
-0.038998399839861218
20
-0.26447621123782405
30
0
10
-0.040179255864257191
20
-0.30109189883925469
30
0
10
-0.041286207519753537
20
-0.32584253964573778
30
0
10
-0.041919617089366389
20
-0.33830291114643973
30
0
0
LINE
5
113
100
AcDbEntity
8
0
100
AcDbLine
10
-0.041919617089366389
20
-0.33830291114643973
30
0
11
0.019093717215057062
21
-0.3128163284623135
31
0
0
LINE
5
114
100
AcDbEntity
8
0
100
AcDbLine
10
0.38596961377115785
20
0.28234350078427684
30
0
11
0.32296764019367669
21
-0.19396671914399519
31
0
0
SPLINE
5
115
100
AcDbEntity
8
0
100
AcDbSpline
70
4
71
5
72
26
73
20
74
0
42
0.000000001
43
0.0000000001
44
0.0000000001
40
0
40
0
40
0
40
0
40
0
40
0
40
0.066666666666666666
40
0.13333333333333333
40
0.20000000000000001
40
0.26666666666666666
40
0.33333333333333331
40
0.39999999999999997
40
0.46666666666666662
40
0.53333333333333333
40
0.59999999999999998
40
0.66666666666666663
40
0.73333333333333328
40
0.79999999999999993
40
0.86666666666666659
40
0.93333333333333324
40
1
40
1
40
1
40
1
40
1
40
1
41
1
41
1
41
1
41
1
41
1
41
1
41
1
41
1
41
1
41
1
41
1
41
1
41
1
41
1
41
1
41
1
41
1
41
1
41
1
41
1
10
0.32296764019367669
20
-0.19396671914399519
30
0
10
0.32256313032214123
20
-0.19813520876358229
30
0
10
0.32187413072692572
20
-0.20624656202103556
30
0
10
0.32120068678452829
20
-0.21773672611486825
30
0
10
0.32102815008449881
20
-0.231693267179197
30
0
10
0.32205429987446194
20
-0.24681432067549997
30
0
10
0.32436619403660855
20
-0.25955766886768533
30
0
10
0.32800610683584908
20
-0.26990421389857172
30
0
10
0.33300163205328187
20
-0.277902321222607
30
0
10
0.33934202491100351
20
-0.2837288510260218
30
0
10
0.34697552543776594
20
-0.28768631535452938
30
0
10
0.35583032793675246
20
-0.29012677090373418
30
0
10
0.36582464977831952
20
-0.29140421161722346
30
0
10
0.37687639874280127
20
-0.29181833831307125
30
0
10
0.3889091937150031
20
-0.29157451014034458
30
0
10
0.40185912690425901
20
-0.29080468094368772
30
0
10
0.41291487107432517
20
-0.28982630470151666
30
0
10
0.4215852344693905
20
-0.28890242160230051
30
0
10
0.42753250450279034
20
-0.28820261465984487
30
0
10
0.43054789675370608
20
-0.28783174024966973
30
0
0
ENDSEC
0
SECTION
2
OBJECTS
0
DICTIONARY
5
C
100
AcDbDictionary
3
ACAD_GROUP
350
D
3
ACAD_MLINESTYLE
350
17
0
DICTIONARY
5
D
100
AcDbDictionary
0
DICTIONARY
5
1A
330
C
100
AcDbDictionary
0
DICTIONARY
5
17
100
AcDbDictionary
0
ENDSEC
0
EOF
