ISO-10303-21;
HEADER;
/* Generated by software containing ST-Developer
 * from STEP Tools, Inc. (www.steptools.com) 
 */

FILE_DESCRIPTION(
/* description */ (''),
/* implementation_level */ '2;1');

FILE_NAME(
/* name */ 'C:\\Users\\skg1waf\\Desktop\\100mm Cube.stp',
/* time_stamp */ '2016-09-23T13:49:17+01:00',
/* author */ ('skg1waf'),
/* organization */ (''),
/* preprocessor_version */ 'ST-DEVELOPER v15.2',
/* originating_system */ 'Autodesk Inventor 2014',
/* authorisation */ '');

FILE_SCHEMA (('AUTOMOTIVE_DESIGN { 1 0 10303 214 3 1 1 }'));
ENDSEC;

DATA;
#10=MECHANICAL_DESIGN_GEOMETRIC_PRESENTATION_REPRESENTATION('',(#13),#171);
#11=SHAPE_REPRESENTATION_RELATIONSHIP('SRR','None',#180,#12);
#12=ADVANCED_BREP_SHAPE_REPRESENTATION($,(#107),#170);
#13=STYLED_ITEM('',(#189),#107);
#14=FACE_OUTER_BOUND('',#20,.T.);
#15=FACE_OUTER_BOUND('',#21,.T.);
#16=FACE_OUTER_BOUND('',#22,.T.);
#17=FACE_OUTER_BOUND('',#23,.T.);
#18=FACE_OUTER_BOUND('',#24,.T.);
#19=FACE_OUTER_BOUND('',#25,.T.);
#20=EDGE_LOOP('',(#70,#71,#72,#73));
#21=EDGE_LOOP('',(#74,#75,#76,#77));
#22=EDGE_LOOP('',(#78,#79,#80,#81));
#23=EDGE_LOOP('',(#82,#83,#84,#85));
#24=EDGE_LOOP('',(#86,#87,#88,#89));
#25=EDGE_LOOP('',(#90,#91,#92,#93));
#26=LINE('',#145,#38);
#27=LINE('',#147,#39);
#28=LINE('',#149,#40);
#29=LINE('',#150,#41);
#30=LINE('',#153,#42);
#31=LINE('',#155,#43);
#32=LINE('',#156,#44);
#33=LINE('',#159,#45);
#34=LINE('',#161,#46);
#35=LINE('',#162,#47);
#36=LINE('',#164,#48);
#37=LINE('',#165,#49);
#38=VECTOR('',#119,100.);
#39=VECTOR('',#120,100.);
#40=VECTOR('',#121,100.);
#41=VECTOR('',#122,100.);
#42=VECTOR('',#125,100.);
#43=VECTOR('',#126,100.);
#44=VECTOR('',#127,100.);
#45=VECTOR('',#130,100.);
#46=VECTOR('',#131,100.);
#47=VECTOR('',#132,100.);
#48=VECTOR('',#135,100.);
#49=VECTOR('',#136,100.);
#50=VERTEX_POINT('',#143);
#51=VERTEX_POINT('',#144);
#52=VERTEX_POINT('',#146);
#53=VERTEX_POINT('',#148);
#54=VERTEX_POINT('',#152);
#55=VERTEX_POINT('',#154);
#56=VERTEX_POINT('',#158);
#57=VERTEX_POINT('',#160);
#58=EDGE_CURVE('',#50,#51,#26,.T.);
#59=EDGE_CURVE('',#50,#52,#27,.T.);
#60=EDGE_CURVE('',#53,#52,#28,.T.);
#61=EDGE_CURVE('',#51,#53,#29,.T.);
#62=EDGE_CURVE('',#51,#54,#30,.T.);
#63=EDGE_CURVE('',#55,#53,#31,.T.);
#64=EDGE_CURVE('',#54,#55,#32,.T.);
#65=EDGE_CURVE('',#54,#56,#33,.T.);
#66=EDGE_CURVE('',#57,#55,#34,.T.);
#67=EDGE_CURVE('',#56,#57,#35,.T.);
#68=EDGE_CURVE('',#56,#50,#36,.T.);
#69=EDGE_CURVE('',#52,#57,#37,.T.);
#70=ORIENTED_EDGE('',*,*,#58,.F.);
#71=ORIENTED_EDGE('',*,*,#59,.T.);
#72=ORIENTED_EDGE('',*,*,#60,.F.);
#73=ORIENTED_EDGE('',*,*,#61,.F.);
#74=ORIENTED_EDGE('',*,*,#62,.F.);
#75=ORIENTED_EDGE('',*,*,#61,.T.);
#76=ORIENTED_EDGE('',*,*,#63,.F.);
#77=ORIENTED_EDGE('',*,*,#64,.F.);
#78=ORIENTED_EDGE('',*,*,#65,.F.);
#79=ORIENTED_EDGE('',*,*,#64,.T.);
#80=ORIENTED_EDGE('',*,*,#66,.F.);
#81=ORIENTED_EDGE('',*,*,#67,.F.);
#82=ORIENTED_EDGE('',*,*,#68,.F.);
#83=ORIENTED_EDGE('',*,*,#67,.T.);
#84=ORIENTED_EDGE('',*,*,#69,.F.);
#85=ORIENTED_EDGE('',*,*,#59,.F.);
#86=ORIENTED_EDGE('',*,*,#68,.T.);
#87=ORIENTED_EDGE('',*,*,#58,.T.);
#88=ORIENTED_EDGE('',*,*,#62,.T.);
#89=ORIENTED_EDGE('',*,*,#65,.T.);
#90=ORIENTED_EDGE('',*,*,#69,.T.);
#91=ORIENTED_EDGE('',*,*,#66,.T.);
#92=ORIENTED_EDGE('',*,*,#63,.T.);
#93=ORIENTED_EDGE('',*,*,#60,.T.);
#94=PLANE('',#109);
#95=PLANE('',#110);
#96=PLANE('',#111);
#97=PLANE('',#112);
#98=PLANE('',#113);
#99=PLANE('',#114);
#100=ADVANCED_FACE('',(#14),#94,.T.);
#101=ADVANCED_FACE('',(#15),#95,.T.);
#102=ADVANCED_FACE('',(#16),#96,.T.);
#103=ADVANCED_FACE('',(#17),#97,.T.);
#104=ADVANCED_FACE('',(#18),#98,.F.);
#105=ADVANCED_FACE('',(#19),#99,.T.);
#106=CLOSED_SHELL('',(#100,#101,#102,#103,#104,#105));
#107=MANIFOLD_SOLID_BREP('Solid1',#106);
#108=AXIS2_PLACEMENT_3D('placement',#141,#115,#116);
#109=AXIS2_PLACEMENT_3D('',#142,#117,#118);
#110=AXIS2_PLACEMENT_3D('',#151,#123,#124);
#111=AXIS2_PLACEMENT_3D('',#157,#128,#129);
#112=AXIS2_PLACEMENT_3D('',#163,#133,#134);
#113=AXIS2_PLACEMENT_3D('',#166,#137,#138);
#114=AXIS2_PLACEMENT_3D('',#167,#139,#140);
#115=DIRECTION('axis',(0.,0.,1.));
#116=DIRECTION('refdir',(1.,0.,0.));
#117=DIRECTION('center_axis',(1.,0.,0.));
#118=DIRECTION('ref_axis',(0.,0.,-1.));
#119=DIRECTION('',(0.,0.,1.));
#120=DIRECTION('',(0.,1.,0.));
#121=DIRECTION('',(0.,0.,-1.));
#122=DIRECTION('',(0.,1.,0.));
#123=DIRECTION('center_axis',(0.,0.,1.));
#124=DIRECTION('ref_axis',(1.,0.,0.));
#125=DIRECTION('',(-1.,0.,0.));
#126=DIRECTION('',(1.,0.,0.));
#127=DIRECTION('',(0.,1.,0.));
#128=DIRECTION('center_axis',(-1.,0.,0.));
#129=DIRECTION('ref_axis',(0.,0.,1.));
#130=DIRECTION('',(0.,0.,-1.));
#131=DIRECTION('',(0.,0.,1.));
#132=DIRECTION('',(0.,1.,0.));
#133=DIRECTION('center_axis',(0.,0.,-1.));
#134=DIRECTION('ref_axis',(-1.,0.,0.));
#135=DIRECTION('',(1.,0.,0.));
#136=DIRECTION('',(-1.,0.,0.));
#137=DIRECTION('center_axis',(0.,1.,0.));
#138=DIRECTION('ref_axis',(0.,0.,1.));
#139=DIRECTION('center_axis',(0.,1.,0.));
#140=DIRECTION('ref_axis',(0.,0.,1.));
#141=CARTESIAN_POINT('',(0.,0.,0.));
#142=CARTESIAN_POINT('Origin',(50.,0.,50.));
#143=CARTESIAN_POINT('',(50.,0.,-50.));
#144=CARTESIAN_POINT('',(50.,0.,50.));
#145=CARTESIAN_POINT('',(50.,0.,-50.));
#146=CARTESIAN_POINT('',(50.,100.,-50.));
#147=CARTESIAN_POINT('',(50.,0.,-50.));
#148=CARTESIAN_POINT('',(50.,100.,50.));
#149=CARTESIAN_POINT('',(50.,100.,-50.));
#150=CARTESIAN_POINT('',(50.,0.,50.));
#151=CARTESIAN_POINT('Origin',(-50.,0.,50.));
#152=CARTESIAN_POINT('',(-50.,0.,50.));
#153=CARTESIAN_POINT('',(50.,0.,50.));
#154=CARTESIAN_POINT('',(-50.,100.,50.));
#155=CARTESIAN_POINT('',(50.,100.,50.));
#156=CARTESIAN_POINT('',(-50.,0.,50.));
#157=CARTESIAN_POINT('Origin',(-50.,0.,-50.));
#158=CARTESIAN_POINT('',(-50.,0.,-50.));
#159=CARTESIAN_POINT('',(-50.,0.,50.));
#160=CARTESIAN_POINT('',(-50.,100.,-50.));
#161=CARTESIAN_POINT('',(-50.,100.,50.));
#162=CARTESIAN_POINT('',(-50.,0.,-50.));
#163=CARTESIAN_POINT('Origin',(50.,0.,-50.));
#164=CARTESIAN_POINT('',(-50.,0.,-50.));
#165=CARTESIAN_POINT('',(-50.,100.,-50.));
#166=CARTESIAN_POINT('Origin',(0.,0.,0.));
#167=CARTESIAN_POINT('Origin',(0.,100.,0.));
#168=UNCERTAINTY_MEASURE_WITH_UNIT(LENGTH_MEASURE(0.01),#172,
'DISTANCE_ACCURACY_VALUE',
'Maximum model space distance between geometric entities at asserted c
onnectivities');
#169=UNCERTAINTY_MEASURE_WITH_UNIT(LENGTH_MEASURE(1.E-006),#172,
'DISTANCE_ACCURACY_VALUE',
'Maximum model space distance between geometric entities at asserted c
onnectivities');
#170=(
GEOMETRIC_REPRESENTATION_CONTEXT(3)
GLOBAL_UNCERTAINTY_ASSIGNED_CONTEXT((#168))
GLOBAL_UNIT_ASSIGNED_CONTEXT((#172,#175,#173))
REPRESENTATION_CONTEXT('','3D')
);
#171=(
GEOMETRIC_REPRESENTATION_CONTEXT(3)
GLOBAL_UNCERTAINTY_ASSIGNED_CONTEXT((#169))
GLOBAL_UNIT_ASSIGNED_CONTEXT((#172,#175,#173))
REPRESENTATION_CONTEXT('','3D')
);
#172=(
LENGTH_UNIT()
NAMED_UNIT(*)
SI_UNIT(.MILLI.,.METRE.)
);
#173=(
NAMED_UNIT(*)
SI_UNIT($,.STERADIAN.)
SOLID_ANGLE_UNIT()
);
#174=DIMENSIONAL_EXPONENTS(0.,0.,0.,0.,0.,0.,0.);
#175=(
CONVERSION_BASED_UNIT('degree',#177)
NAMED_UNIT(#174)
PLANE_ANGLE_UNIT()
);
#176=(
NAMED_UNIT(*)
PLANE_ANGLE_UNIT()
SI_UNIT($,.RADIAN.)
);
#177=PLANE_ANGLE_MEASURE_WITH_UNIT(PLANE_ANGLE_MEASURE(0.01745329252),#176);
#178=SHAPE_DEFINITION_REPRESENTATION(#179,#180);
#179=PRODUCT_DEFINITION_SHAPE('',$,#182);
#180=SHAPE_REPRESENTATION('',(#108),#170);
#181=PRODUCT_DEFINITION_CONTEXT('part definition',#186,'design');
#182=PRODUCT_DEFINITION('100mm Cube','100mm Cube',#183,#181);
#183=PRODUCT_DEFINITION_FORMATION('',$,#188);
#184=PRODUCT_RELATED_PRODUCT_CATEGORY('100mm Cube','100mm Cube',(#188));
#185=APPLICATION_PROTOCOL_DEFINITION('international standard',
'automotive_design',2009,#186);
#186=APPLICATION_CONTEXT(
'Core Data for Automotive Mechanical Design Process');
#187=PRODUCT_CONTEXT('part definition',#186,'mechanical');
#188=PRODUCT('100mm Cube','100mm Cube',$,(#187));
#189=PRESENTATION_STYLE_ASSIGNMENT((#190));
#190=SURFACE_STYLE_USAGE(.BOTH.,#191);
#191=SURFACE_SIDE_STYLE($,(#192));
#192=SURFACE_STYLE_FILL_AREA(#193);
#193=FILL_AREA_STYLE($,(#194));
#194=FILL_AREA_STYLE_COLOUR($,#195);
#195=COLOUR_RGB('',0.63921568627451,0.63921568627451,0.686274509803922);
ENDSEC;
END-ISO-10303-21;
