ISO-10303-21;
HEADER;
/* Generated by software containing ST-Developer
 * from STEP Tools, Inc. (www.steptools.com) 
 */
/* OPTION: using custom schema-name function */

FILE_DESCRIPTION(
/* description */ (''),
/* implementation_level */ '2;1');

FILE_NAME(
/* name */ 'temp',
/* time_stamp */ '2016-10-25T10:50:46+01:00',
/* author */ (''),
/* organization */ (''),
/* preprocessor_version */ 'ST-DEVELOPER v15',
/* originating_system */ '',
/* authorisation */ '');

FILE_SCHEMA (('AUTOMOTIVE_DESIGN'));
ENDSEC;

DATA;
#10=SHAPE_REPRESENTATION_RELATIONSHIP('','',#129,#13);
#11=PRESENTATION_LAYER_ASSIGNMENT('Default','',(#12));
#12=MANIFOLD_SOLID_BREP('brep_1',#14);
#13=ADVANCED_BREP_SHAPE_REPRESENTATION('brep_rep_0',(#12,#133),#128);
#14=CLOSED_SHELL('',(#15,#16,#17,#18,#19,#20,#21,#22));
#15=ADVANCED_FACE('',(#23),#109,.T.);
#16=ADVANCED_FACE('',(#24),#110,.T.);
#17=ADVANCED_FACE('',(#25),#103,.T.);
#18=ADVANCED_FACE('',(#26),#104,.T.);
#19=ADVANCED_FACE('',(#27),#105,.T.);
#20=ADVANCED_FACE('',(#28),#106,.T.);
#21=ADVANCED_FACE('',(#29),#107,.T.);
#22=ADVANCED_FACE('',(#30),#108,.T.);
#23=FACE_OUTER_BOUND('',#31,.T.);
#24=FACE_OUTER_BOUND('',#32,.T.);
#25=FACE_OUTER_BOUND('',#33,.T.);
#26=FACE_OUTER_BOUND('',#34,.T.);
#27=FACE_OUTER_BOUND('',#35,.T.);
#28=FACE_OUTER_BOUND('',#36,.T.);
#29=FACE_OUTER_BOUND('',#37,.T.);
#30=FACE_OUTER_BOUND('',#38,.T.);
#31=EDGE_LOOP('',(#39,#40));
#32=EDGE_LOOP('',(#41,#42));
#33=EDGE_LOOP('',(#43,#44,#45,#46));
#34=EDGE_LOOP('',(#47,#48,#49,#50));
#35=EDGE_LOOP('',(#51,#52,#53,#54));
#36=EDGE_LOOP('',(#55,#56,#57,#58));
#37=EDGE_LOOP('',(#59,#60,#61,#62));
#38=EDGE_LOOP('',(#63,#64,#65,#66));
#39=ORIENTED_EDGE('',*,*,#69,.T.);
#40=ORIENTED_EDGE('',*,*,#75,.T.);
#41=ORIENTED_EDGE('',*,*,#67,.T.);
#42=ORIENTED_EDGE('',*,*,#78,.T.);
#43=ORIENTED_EDGE('',*,*,#73,.F.);
#44=ORIENTED_EDGE('',*,*,#70,.T.);
#45=ORIENTED_EDGE('',*,*,#75,.F.);
#46=ORIENTED_EDGE('',*,*,#74,.F.);
#47=ORIENTED_EDGE('',*,*,#67,.F.);
#48=ORIENTED_EDGE('',*,*,#68,.T.);
#49=ORIENTED_EDGE('',*,*,#72,.T.);
#50=ORIENTED_EDGE('',*,*,#77,.F.);
#51=ORIENTED_EDGE('',*,*,#72,.F.);
#52=ORIENTED_EDGE('',*,*,#71,.T.);
#53=ORIENTED_EDGE('',*,*,#73,.T.);
#54=ORIENTED_EDGE('',*,*,#80,.F.);
#55=ORIENTED_EDGE('',*,*,#74,.T.);
#56=ORIENTED_EDGE('',*,*,#69,.F.);
#57=ORIENTED_EDGE('',*,*,#70,.F.);
#58=ORIENTED_EDGE('',*,*,#76,.F.);
#59=ORIENTED_EDGE('',*,*,#77,.T.);
#60=ORIENTED_EDGE('',*,*,#79,.T.);
#61=ORIENTED_EDGE('',*,*,#68,.F.);
#62=ORIENTED_EDGE('',*,*,#78,.F.);
#63=ORIENTED_EDGE('',*,*,#80,.T.);
#64=ORIENTED_EDGE('',*,*,#76,.T.);
#65=ORIENTED_EDGE('',*,*,#71,.F.);
#66=ORIENTED_EDGE('',*,*,#79,.F.);
#67=EDGE_CURVE('',#96,#101,#85,.T.);
#68=EDGE_CURVE('',#96,#98,#81,.T.);
#69=EDGE_CURVE('',#95,#100,#86,.T.);
#70=EDGE_CURVE('',#97,#95,#87,.T.);
#71=EDGE_CURVE('',#98,#97,#82,.T.);
#72=EDGE_CURVE('',#98,#102,#88,.T.);
#73=EDGE_CURVE('',#97,#99,#89,.T.);
#74=EDGE_CURVE('',#99,#100,#90,.T.);
#75=EDGE_CURVE('',#100,#95,#91,.T.);
#76=EDGE_CURVE('',#99,#97,#92,.T.);
#77=EDGE_CURVE('',#101,#102,#83,.T.);
#78=EDGE_CURVE('',#101,#96,#93,.T.);
#79=EDGE_CURVE('',#102,#98,#94,.T.);
#80=EDGE_CURVE('',#102,#99,#84,.T.);
#81=B_SPLINE_CURVE_WITH_KNOTS('',3,(#266,#267,#268,#269),.UNSPECIFIED.,
 .F.,.F.,(4,4),(195.,285.470853294683),.UNSPECIFIED.);
#82=B_SPLINE_CURVE_WITH_KNOTS('',1,(#280,#281),.UNSPECIFIED.,.F.,.F.,(2,
2),(285.470853294683,335.470853294683),.UNSPECIFIED.);
#83=B_SPLINE_CURVE_WITH_KNOTS('',3,(#307,#308,#309,#310),.UNSPECIFIED.,
 .F.,.F.,(4,4),(195.,285.470853294683),.UNSPECIFIED.);
#84=B_SPLINE_CURVE_WITH_KNOTS('',1,(#321,#322),.UNSPECIFIED.,.F.,.F.,(2,
2),(285.470853294683,335.470853294683),.UNSPECIFIED.);
#85=(
BOUNDED_CURVE()
B_SPLINE_CURVE(2,(#261,#262,#263,#264,#265),.UNSPECIFIED.,.F.,.F.)
B_SPLINE_CURVE_WITH_KNOTS((3,2,3),(0.,117.55812217064,235.11624434128),
 .UNSPECIFIED.)
CURVE()
GEOMETRIC_REPRESENTATION_ITEM()
RATIONAL_B_SPLINE_CURVE((1.,0.707106781186548,1.,0.707106781186548,1.))
REPRESENTATION_ITEM('')
);
#86=(
BOUNDED_CURVE()
B_SPLINE_CURVE(2,(#270,#271,#272,#273,#274),.UNSPECIFIED.,.F.,.F.)
B_SPLINE_CURVE_WITH_KNOTS((3,2,3),(-470.232488682559,-352.674366511919,
-235.11624434128),.UNSPECIFIED.)
CURVE()
GEOMETRIC_REPRESENTATION_ITEM()
RATIONAL_B_SPLINE_CURVE((1.,0.707106781186548,1.,0.707106781186548,1.))
REPRESENTATION_ITEM('')
);
#87=(
BOUNDED_CURVE()
B_SPLINE_CURVE(2,(#275,#276,#277,#278,#279),.UNSPECIFIED.,.F.,.F.)
B_SPLINE_CURVE_WITH_KNOTS((3,2,3),(335.470853294683,374.740761464555,414.010669634428),
 .UNSPECIFIED.)
CURVE()
GEOMETRIC_REPRESENTATION_ITEM()
RATIONAL_B_SPLINE_CURVE((1.,0.707106781186548,1.,0.707106781186548,1.))
REPRESENTATION_ITEM('')
);
#88=(
BOUNDED_CURVE()
B_SPLINE_CURVE(2,(#282,#283,#284,#285,#286),.UNSPECIFIED.,.F.,.F.)
B_SPLINE_CURVE_WITH_KNOTS((3,2,3),(0.,117.55812217064,235.11624434128),
 .UNSPECIFIED.)
CURVE()
GEOMETRIC_REPRESENTATION_ITEM()
RATIONAL_B_SPLINE_CURVE((1.,0.707106781186548,1.,0.707106781186548,1.))
REPRESENTATION_ITEM('')
);
#89=(
BOUNDED_CURVE()
B_SPLINE_CURVE(2,(#287,#288,#289,#290,#291),.UNSPECIFIED.,.F.,.F.)
B_SPLINE_CURVE_WITH_KNOTS((3,2,3),(0.,117.55812217064,235.11624434128),
 .UNSPECIFIED.)
CURVE()
GEOMETRIC_REPRESENTATION_ITEM()
RATIONAL_B_SPLINE_CURVE((1.,0.707106781186548,1.,0.707106781186548,1.))
REPRESENTATION_ITEM('')
);
#90=(
BOUNDED_CURVE()
B_SPLINE_CURVE(2,(#292,#293,#294,#295,#296),.UNSPECIFIED.,.F.,.F.)
B_SPLINE_CURVE_WITH_KNOTS((3,2,3),(335.470853294683,374.740761464555,414.010669634428),
 .UNSPECIFIED.)
CURVE()
GEOMETRIC_REPRESENTATION_ITEM()
RATIONAL_B_SPLINE_CURVE((1.,0.707106781186548,1.,0.707106781186548,1.))
REPRESENTATION_ITEM('')
);
#91=(
BOUNDED_CURVE()
B_SPLINE_CURVE(2,(#297,#298,#299,#300,#301),.UNSPECIFIED.,.F.,.F.)
B_SPLINE_CURVE_WITH_KNOTS((3,2,3),(-235.11624434128,-117.55812217064,0.),
 .UNSPECIFIED.)
CURVE()
GEOMETRIC_REPRESENTATION_ITEM()
RATIONAL_B_SPLINE_CURVE((1.,0.707106781186548,1.,0.707106781186548,1.))
REPRESENTATION_ITEM('')
);
#92=(
BOUNDED_CURVE()
B_SPLINE_CURVE(2,(#302,#303,#304,#305,#306),.UNSPECIFIED.,.F.,.F.)
B_SPLINE_CURVE_WITH_KNOTS((3,2,3),(235.11624434128,352.674366511919,470.232488682559),
 .UNSPECIFIED.)
CURVE()
GEOMETRIC_REPRESENTATION_ITEM()
RATIONAL_B_SPLINE_CURVE((1.,0.707106781186548,1.,0.707106781186548,1.))
REPRESENTATION_ITEM('')
);
#93=(
BOUNDED_CURVE()
B_SPLINE_CURVE(2,(#311,#312,#313,#314,#315),.UNSPECIFIED.,.F.,.F.)
B_SPLINE_CURVE_WITH_KNOTS((3,2,3),(235.11624434128,352.674366511919,470.232488682559),
 .UNSPECIFIED.)
CURVE()
GEOMETRIC_REPRESENTATION_ITEM()
RATIONAL_B_SPLINE_CURVE((1.,0.707106781186548,1.,0.707106781186548,1.))
REPRESENTATION_ITEM('')
);
#94=(
BOUNDED_CURVE()
B_SPLINE_CURVE(2,(#316,#317,#318,#319,#320),.UNSPECIFIED.,.F.,.F.)
B_SPLINE_CURVE_WITH_KNOTS((3,2,3),(235.11624434128,352.674366511919,470.232488682559),
 .UNSPECIFIED.)
CURVE()
GEOMETRIC_REPRESENTATION_ITEM()
RATIONAL_B_SPLINE_CURVE((1.,0.707106781186548,1.,0.707106781186548,1.))
REPRESENTATION_ITEM('')
);
#95=VERTEX_POINT('',#253);
#96=VERTEX_POINT('',#254);
#97=VERTEX_POINT('',#255);
#98=VERTEX_POINT('',#256);
#99=VERTEX_POINT('',#257);
#100=VERTEX_POINT('',#258);
#101=VERTEX_POINT('',#259);
#102=VERTEX_POINT('',#260);
#103=(
BOUNDED_SURFACE()
B_SPLINE_SURFACE(2,2,((#143,#144,#145,#146,#147),(#148,#149,#150,#151,#152),
(#153,#154,#155,#156,#157),(#158,#159,#160,#161,#162),(#163,#164,#165,#166,
#167)),.UNSPECIFIED.,.F.,.F.,.F.)
B_SPLINE_SURFACE_WITH_KNOTS((3,2,3),(3,2,3),(335.470853294683,374.740761464555,
414.010669634428),(0.,117.55812217064,235.11624434128),.UNSPECIFIED.)
GEOMETRIC_REPRESENTATION_ITEM()
RATIONAL_B_SPLINE_SURFACE(((1.,0.707106781186548,1.,0.707106781186548,1.),
(0.707106781186548,0.5,0.707106781186548,0.5,0.707106781186548),(1.,0.707106781186548,
1.,0.707106781186548,1.),(0.707106781186548,0.5,0.707106781186548,0.5,0.707106781186548),
(1.,0.707106781186548,1.,0.707106781186548,1.)))
REPRESENTATION_ITEM('')
SURFACE()
);
#104=(
BOUNDED_SURFACE()
B_SPLINE_SURFACE(3,2,((#168,#169,#170,#171,#172),(#173,#174,#175,#176,#177),
(#178,#179,#180,#181,#182),(#183,#184,#185,#186,#187)),.UNSPECIFIED.,.F.,
 .F.,.F.)
B_SPLINE_SURFACE_WITH_KNOTS((4,4),(3,2,3),(195.,285.470853294683),(0.,117.55812217064,
235.11624434128),.UNSPECIFIED.)
GEOMETRIC_REPRESENTATION_ITEM()
RATIONAL_B_SPLINE_SURFACE(((1.,0.707106781186548,1.,0.707106781186548,1.),
(1.,0.707106781186548,1.,0.707106781186548,1.),(1.,0.707106781186548,1.,
0.707106781186548,1.),(1.,0.707106781186548,1.,0.707106781186548,1.)))
REPRESENTATION_ITEM('')
SURFACE()
);
#105=(
BOUNDED_SURFACE()
B_SPLINE_SURFACE(1,2,((#188,#189,#190,#191,#192),(#193,#194,#195,#196,#197)),
 .UNSPECIFIED.,.F.,.F.,.F.)
B_SPLINE_SURFACE_WITH_KNOTS((2,2),(3,2,3),(285.470853294683,335.470853294683),
(0.,117.55812217064,235.11624434128),.UNSPECIFIED.)
GEOMETRIC_REPRESENTATION_ITEM()
RATIONAL_B_SPLINE_SURFACE(((1.,0.707106781186548,1.,0.707106781186548,1.),
(1.,0.707106781186548,1.,0.707106781186548,1.)))
REPRESENTATION_ITEM('')
SURFACE()
);
#106=(
BOUNDED_SURFACE()
B_SPLINE_SURFACE(2,2,((#198,#199,#200,#201,#202),(#203,#204,#205,#206,#207),
(#208,#209,#210,#211,#212),(#213,#214,#215,#216,#217),(#218,#219,#220,#221,
#222)),.UNSPECIFIED.,.F.,.F.,.F.)
B_SPLINE_SURFACE_WITH_KNOTS((3,2,3),(3,2,3),(335.470853294683,374.740761464555,
414.010669634428),(235.11624434128,352.674366511919,470.232488682559),
 .UNSPECIFIED.)
GEOMETRIC_REPRESENTATION_ITEM()
RATIONAL_B_SPLINE_SURFACE(((1.,0.707106781186548,1.,0.707106781186548,1.),
(0.707106781186548,0.5,0.707106781186548,0.5,0.707106781186548),(1.,0.707106781186548,
1.,0.707106781186548,1.),(0.707106781186548,0.5,0.707106781186548,0.5,0.707106781186548),
(1.,0.707106781186548,1.,0.707106781186548,1.)))
REPRESENTATION_ITEM('')
SURFACE()
);
#107=(
BOUNDED_SURFACE()
B_SPLINE_SURFACE(3,2,((#223,#224,#225,#226,#227),(#228,#229,#230,#231,#232),
(#233,#234,#235,#236,#237),(#238,#239,#240,#241,#242)),.UNSPECIFIED.,.F.,
 .F.,.F.)
B_SPLINE_SURFACE_WITH_KNOTS((4,4),(3,2,3),(195.,285.470853294683),(235.11624434128,
352.674366511919,470.232488682559),.UNSPECIFIED.)
GEOMETRIC_REPRESENTATION_ITEM()
RATIONAL_B_SPLINE_SURFACE(((1.,0.707106781186548,1.,0.707106781186548,1.),
(1.,0.707106781186548,1.,0.707106781186548,1.),(1.,0.707106781186548,1.,
0.707106781186548,1.),(1.,0.707106781186548,1.,0.707106781186548,1.)))
REPRESENTATION_ITEM('')
SURFACE()
);
#108=(
BOUNDED_SURFACE()
B_SPLINE_SURFACE(1,2,((#243,#244,#245,#246,#247),(#248,#249,#250,#251,#252)),
 .UNSPECIFIED.,.F.,.F.,.F.)
B_SPLINE_SURFACE_WITH_KNOTS((2,2),(3,2,3),(285.470853294683,335.470853294683),
(235.11624434128,352.674366511919,470.232488682559),.UNSPECIFIED.)
GEOMETRIC_REPRESENTATION_ITEM()
RATIONAL_B_SPLINE_SURFACE(((1.,0.707106781186548,1.,0.707106781186548,1.),
(1.,0.707106781186548,1.,0.707106781186548,1.)))
REPRESENTATION_ITEM('')
SURFACE()
);
#109=PLANE('',#131);
#110=PLANE('',#132);
#111=SHAPE_DEFINITION_REPRESENTATION(#112,#129);
#112=PRODUCT_DEFINITION_SHAPE('Document','',#114);
#113=PRODUCT_DEFINITION_CONTEXT('3D Mechanical Parts',#118,'design');
#114=PRODUCT_DEFINITION('A','First version',#115,#113);
#115=PRODUCT_DEFINITION_FORMATION_WITH_SPECIFIED_SOURCE('A',
'First version',#120,.MADE.);
#116=PRODUCT_RELATED_PRODUCT_CATEGORY('tool','tool',(#120));
#117=APPLICATION_PROTOCOL_DEFINITION('Draft International Standard',
'automotive_design',1999,#118);
#118=APPLICATION_CONTEXT(
'data for automotive mechanical design processes');
#119=PRODUCT_CONTEXT('3D Mechanical Parts',#118,'mechanical');
#120=PRODUCT('Document','Document','Rhino converted to STEP',(#119));
#121=(
LENGTH_UNIT()
NAMED_UNIT(*)
SI_UNIT(.MILLI.,.METRE.)
);
#122=(
NAMED_UNIT(*)
PLANE_ANGLE_UNIT()
SI_UNIT($,.RADIAN.)
);
#123=DIMENSIONAL_EXPONENTS(0.,0.,0.,0.,0.,0.,0.);
#124=PLANE_ANGLE_MEASURE_WITH_UNIT(PLANE_ANGLE_MEASURE(0.01745329252),#122);
#125=(
CONVERSION_BASED_UNIT('DEGREES',#124)
NAMED_UNIT(#123)
PLANE_ANGLE_UNIT()
);
#126=(
NAMED_UNIT(*)
SI_UNIT($,.STERADIAN.)
SOLID_ANGLE_UNIT()
);
#127=UNCERTAINTY_MEASURE_WITH_UNIT(LENGTH_MEASURE(0.001),#121,
'DISTANCE_ACCURACY_VALUE',
'Maximum model space distance between geometric entities at asserted c
onnectivities');
#128=(
GEOMETRIC_REPRESENTATION_CONTEXT(3)
GLOBAL_UNCERTAINTY_ASSIGNED_CONTEXT((#127))
GLOBAL_UNIT_ASSIGNED_CONTEXT((#126,#125,#121))
REPRESENTATION_CONTEXT('ID1','3D')
);
#129=SHAPE_REPRESENTATION('Document',(#130,#133),#128);
#130=AXIS2_PLACEMENT_3D('',#140,#134,#135);
#131=AXIS2_PLACEMENT_3D('',#141,#136,$);
#132=AXIS2_PLACEMENT_3D('',#142,#137,$);
#133=AXIS2_PLACEMENT_3D('',#323,#138,#139);
#134=DIRECTION('',(0.,0.,1.));
#135=DIRECTION('',(1.,0.,0.));
#136=DIRECTION('',(0.,0.,-1.));
#137=DIRECTION('',(0.,0.,1.));
#138=DIRECTION('',(0.,0.,1.));
#139=DIRECTION('',(1.,0.,0.));
#140=CARTESIAN_POINT('',(0.,0.,0.));
#141=CARTESIAN_POINT('',(-45.9,45.9,0.));
#142=CARTESIAN_POINT('',(-45.9,-45.9,150.));
#143=CARTESIAN_POINT('',(45.,0.,50.));
#144=CARTESIAN_POINT('',(45.,45.,50.));
#145=CARTESIAN_POINT('',(2.75545529808154E-15,45.,50.));
#146=CARTESIAN_POINT('',(-45.,45.,50.));
#147=CARTESIAN_POINT('',(-45.,5.51091059616309E-15,50.));
#148=CARTESIAN_POINT('',(70.,0.,50.));
#149=CARTESIAN_POINT('',(70.,70.,50.));
#150=CARTESIAN_POINT('',(4.28626379701574E-15,70.,50.));
#151=CARTESIAN_POINT('',(-70.,70.,50.));
#152=CARTESIAN_POINT('',(-70.,8.57252759403147E-15,50.));
#153=CARTESIAN_POINT('',(70.,0.,25.));
#154=CARTESIAN_POINT('',(70.,70.,25.));
#155=CARTESIAN_POINT('',(4.28626379701574E-15,70.,25.));
#156=CARTESIAN_POINT('',(-70.,70.,25.));
#157=CARTESIAN_POINT('',(-70.,8.57252759403147E-15,25.));
#158=CARTESIAN_POINT('',(70.,0.,6.2803698347351E-15));
#159=CARTESIAN_POINT('',(70.,70.,6.2803698347351E-15));
#160=CARTESIAN_POINT('',(4.28626379701574E-15,70.,6.2803698347351E-15));
#161=CARTESIAN_POINT('',(-70.,70.,6.2803698347351E-15));
#162=CARTESIAN_POINT('',(-70.,8.57252759403147E-15,6.2803698347351E-15));
#163=CARTESIAN_POINT('',(45.,0.,0.));
#164=CARTESIAN_POINT('',(45.,45.,0.));
#165=CARTESIAN_POINT('',(2.75545529808154E-15,45.,0.));
#166=CARTESIAN_POINT('',(-45.,45.,0.));
#167=CARTESIAN_POINT('',(-45.,5.51091059616309E-15,0.));
#168=CARTESIAN_POINT('',(45.,0.,150.));
#169=CARTESIAN_POINT('',(45.,45.,150.));
#170=CARTESIAN_POINT('',(2.75545529808154E-15,45.,150.));
#171=CARTESIAN_POINT('',(-45.,45.,150.));
#172=CARTESIAN_POINT('',(-45.,5.51091059616309E-15,150.));
#173=CARTESIAN_POINT('',(84.6012825257644,0.,147.));
#174=CARTESIAN_POINT('',(84.6012825257644,84.6012825257644,147.));
#175=CARTESIAN_POINT('',(5.18033449244692E-15,84.6012825257644,147.));
#176=CARTESIAN_POINT('',(-84.6012825257644,84.6012825257644,147.));
#177=CARTESIAN_POINT('',(-84.6012825257644,1.03606689848938E-14,147.));
#178=CARTESIAN_POINT('',(85.,0.,101.));
#179=CARTESIAN_POINT('',(85.,85.,101.));
#180=CARTESIAN_POINT('',(5.20474889637625E-15,85.,101.));
#181=CARTESIAN_POINT('',(-85.,85.,101.));
#182=CARTESIAN_POINT('',(-85.,1.04094977927525E-14,101.));
#183=CARTESIAN_POINT('',(45.,0.,100.));
#184=CARTESIAN_POINT('',(45.,45.,100.));
#185=CARTESIAN_POINT('',(2.75545529808154E-15,45.,100.));
#186=CARTESIAN_POINT('',(-45.,45.,100.));
#187=CARTESIAN_POINT('',(-45.,5.51091059616309E-15,100.));
#188=CARTESIAN_POINT('',(45.,0.,100.));
#189=CARTESIAN_POINT('',(45.,45.,100.));
#190=CARTESIAN_POINT('',(2.75545529808154E-15,45.,100.));
#191=CARTESIAN_POINT('',(-45.,45.,100.));
#192=CARTESIAN_POINT('',(-45.,5.51091059616309E-15,100.));
#193=CARTESIAN_POINT('',(45.,0.,50.));
#194=CARTESIAN_POINT('',(45.,45.,50.));
#195=CARTESIAN_POINT('',(2.75545529808154E-15,45.,50.));
#196=CARTESIAN_POINT('',(-45.,45.,50.));
#197=CARTESIAN_POINT('',(-45.,5.51091059616309E-15,50.));
#198=CARTESIAN_POINT('',(-45.,0.,50.));
#199=CARTESIAN_POINT('',(-45.,-45.,50.));
#200=CARTESIAN_POINT('',(-2.75545529808154E-15,-45.,50.));
#201=CARTESIAN_POINT('',(45.,-45.,50.));
#202=CARTESIAN_POINT('',(45.,-5.51091059616309E-15,50.));
#203=CARTESIAN_POINT('',(-70.,0.,50.));
#204=CARTESIAN_POINT('',(-70.,-70.,50.));
#205=CARTESIAN_POINT('',(-4.28626379701574E-15,-70.,50.));
#206=CARTESIAN_POINT('',(70.,-70.,50.));
#207=CARTESIAN_POINT('',(70.,-8.57252759403147E-15,50.));
#208=CARTESIAN_POINT('',(-70.,0.,25.));
#209=CARTESIAN_POINT('',(-70.,-70.,25.));
#210=CARTESIAN_POINT('',(-4.28626379701574E-15,-70.,25.));
#211=CARTESIAN_POINT('',(70.,-70.,25.));
#212=CARTESIAN_POINT('',(70.,-8.57252759403147E-15,25.));
#213=CARTESIAN_POINT('',(-70.,0.,6.2803698347351E-15));
#214=CARTESIAN_POINT('',(-70.,-70.,6.2803698347351E-15));
#215=CARTESIAN_POINT('',(-4.28626379701574E-15,-70.,6.2803698347351E-15));
#216=CARTESIAN_POINT('',(70.,-70.,6.2803698347351E-15));
#217=CARTESIAN_POINT('',(70.,-8.57252759403147E-15,6.2803698347351E-15));
#218=CARTESIAN_POINT('',(-45.,0.,0.));
#219=CARTESIAN_POINT('',(-45.,-45.,0.));
#220=CARTESIAN_POINT('',(-2.75545529808154E-15,-45.,0.));
#221=CARTESIAN_POINT('',(45.,-45.,0.));
#222=CARTESIAN_POINT('',(45.,-5.51091059616309E-15,0.));
#223=CARTESIAN_POINT('',(-45.,0.,150.));
#224=CARTESIAN_POINT('',(-45.,-45.,150.));
#225=CARTESIAN_POINT('',(-2.75545529808154E-15,-45.,150.));
#226=CARTESIAN_POINT('',(45.,-45.,150.));
#227=CARTESIAN_POINT('',(45.,-5.51091059616309E-15,150.));
#228=CARTESIAN_POINT('',(-84.6012825257644,0.,147.));
#229=CARTESIAN_POINT('',(-84.6012825257644,-84.6012825257644,147.));
#230=CARTESIAN_POINT('',(-5.18033449244692E-15,-84.6012825257644,147.));
#231=CARTESIAN_POINT('',(84.6012825257644,-84.6012825257644,147.));
#232=CARTESIAN_POINT('',(84.6012825257644,-1.03606689848938E-14,147.));
#233=CARTESIAN_POINT('',(-85.,0.,101.));
#234=CARTESIAN_POINT('',(-85.,-85.,101.));
#235=CARTESIAN_POINT('',(-5.20474889637625E-15,-85.,101.));
#236=CARTESIAN_POINT('',(85.,-85.,101.));
#237=CARTESIAN_POINT('',(85.,-1.04094977927525E-14,101.));
#238=CARTESIAN_POINT('',(-45.,0.,100.));
#239=CARTESIAN_POINT('',(-45.,-45.,100.));
#240=CARTESIAN_POINT('',(-2.75545529808154E-15,-45.,100.));
#241=CARTESIAN_POINT('',(45.,-45.,100.));
#242=CARTESIAN_POINT('',(45.,-5.51091059616309E-15,100.));
#243=CARTESIAN_POINT('',(-45.,0.,100.));
#244=CARTESIAN_POINT('',(-45.,-45.,100.));
#245=CARTESIAN_POINT('',(-2.75545529808154E-15,-45.,100.));
#246=CARTESIAN_POINT('',(45.,-45.,100.));
#247=CARTESIAN_POINT('',(45.,-5.51091059616309E-15,100.));
#248=CARTESIAN_POINT('',(-45.,0.,50.));
#249=CARTESIAN_POINT('',(-45.,-45.,50.));
#250=CARTESIAN_POINT('',(-2.75545529808154E-15,-45.,50.));
#251=CARTESIAN_POINT('',(45.,-45.,50.));
#252=CARTESIAN_POINT('',(45.,-5.51091059616309E-15,50.));
#253=CARTESIAN_POINT('',(45.,-1.10218211923262E-14,0.));
#254=CARTESIAN_POINT('',(45.,0.,150.));
#255=CARTESIAN_POINT('',(45.,0.,50.));
#256=CARTESIAN_POINT('',(45.,0.,100.));
#257=CARTESIAN_POINT('',(-45.,0.,50.));
#258=CARTESIAN_POINT('',(-45.,0.,0.));
#259=CARTESIAN_POINT('',(-45.,0.,150.));
#260=CARTESIAN_POINT('',(-45.,0.,100.));
#261=CARTESIAN_POINT('',(45.,0.,150.));
#262=CARTESIAN_POINT('',(45.,45.,150.));
#263=CARTESIAN_POINT('',(2.75545529808154E-15,45.,150.));
#264=CARTESIAN_POINT('',(-45.,45.,150.));
#265=CARTESIAN_POINT('',(-45.,0.,150.));
#266=CARTESIAN_POINT('',(45.,0.,150.));
#267=CARTESIAN_POINT('',(84.6012825257644,0.,147.));
#268=CARTESIAN_POINT('',(85.,0.,101.));
#269=CARTESIAN_POINT('',(45.,0.,100.));
#270=CARTESIAN_POINT('',(45.,0.,0.));
#271=CARTESIAN_POINT('',(45.,-45.,0.));
#272=CARTESIAN_POINT('',(-8.26636589424463E-15,-45.,0.));
#273=CARTESIAN_POINT('',(-45.,-45.,0.));
#274=CARTESIAN_POINT('',(-45.,0.,0.));
#275=CARTESIAN_POINT('',(45.,0.,50.));
#276=CARTESIAN_POINT('',(70.,0.,50.));
#277=CARTESIAN_POINT('',(70.,-5.51091059616309E-15,25.));
#278=CARTESIAN_POINT('',(70.,-1.10218211923262E-14,6.2803698347351E-15));
#279=CARTESIAN_POINT('',(45.,-1.10218211923262E-14,0.));
#280=CARTESIAN_POINT('',(45.,0.,100.));
#281=CARTESIAN_POINT('',(45.,0.,50.));
#282=CARTESIAN_POINT('',(45.,0.,100.));
#283=CARTESIAN_POINT('',(45.,45.,100.));
#284=CARTESIAN_POINT('',(2.75545529808154E-15,45.,100.));
#285=CARTESIAN_POINT('',(-45.,45.,100.));
#286=CARTESIAN_POINT('',(-45.,0.,100.));
#287=CARTESIAN_POINT('',(45.,0.,50.));
#288=CARTESIAN_POINT('',(45.,45.,50.));
#289=CARTESIAN_POINT('',(2.75545529808154E-15,45.,50.));
#290=CARTESIAN_POINT('',(-45.,45.,50.));
#291=CARTESIAN_POINT('',(-45.,0.,50.));
#292=CARTESIAN_POINT('',(-45.,0.,50.));
#293=CARTESIAN_POINT('',(-70.,0.,50.));
#294=CARTESIAN_POINT('',(-70.,0.,25.));
#295=CARTESIAN_POINT('',(-70.,0.,6.2803698347351E-15));
#296=CARTESIAN_POINT('',(-45.,0.,0.));
#297=CARTESIAN_POINT('',(-45.,0.,0.));
#298=CARTESIAN_POINT('',(-45.,45.,0.));
#299=CARTESIAN_POINT('',(2.75545529808154E-15,45.,0.));
#300=CARTESIAN_POINT('',(45.,45.,0.));
#301=CARTESIAN_POINT('',(45.,0.,0.));
#302=CARTESIAN_POINT('',(-45.,0.,50.));
#303=CARTESIAN_POINT('',(-45.,-45.,50.));
#304=CARTESIAN_POINT('',(-8.26636589424463E-15,-45.,50.));
#305=CARTESIAN_POINT('',(45.,-45.,50.));
#306=CARTESIAN_POINT('',(45.,0.,50.));
#307=CARTESIAN_POINT('',(-45.,0.,150.));
#308=CARTESIAN_POINT('',(-84.6012825257644,0.,147.));
#309=CARTESIAN_POINT('',(-85.,0.,101.));
#310=CARTESIAN_POINT('',(-45.,0.,100.));
#311=CARTESIAN_POINT('',(-45.,0.,150.));
#312=CARTESIAN_POINT('',(-45.,-45.,150.));
#313=CARTESIAN_POINT('',(-8.26636589424463E-15,-45.,150.));
#314=CARTESIAN_POINT('',(45.,-45.,150.));
#315=CARTESIAN_POINT('',(45.,0.,150.));
#316=CARTESIAN_POINT('',(-45.,0.,100.));
#317=CARTESIAN_POINT('',(-45.,-45.,100.));
#318=CARTESIAN_POINT('',(-8.26636589424463E-15,-45.,100.));
#319=CARTESIAN_POINT('',(45.,-45.,100.));
#320=CARTESIAN_POINT('',(45.,0.,100.));
#321=CARTESIAN_POINT('',(-45.,0.,100.));
#322=CARTESIAN_POINT('',(-45.,0.,50.));
#323=CARTESIAN_POINT('',(0.,0.,0.));
ENDSEC;
END-ISO-10303-21;
