  0
SECTION
  2
HEADER
  9
$ACADVER
  1
AC1009
  9
$INSBASE
 10
0.0
 20
0.0
 30
0.0
  9
$EXTMIN
 10
1206.1407023935351
 20
147.2617895267442
 30
0.0
  9
$EXTMAX
 10
1774.496875267713
 20
498.74130065555732
 30
0.0
  9
$LIMMIN
 10
0.0
 20
0.0
  9
$LIMMAX
 10
297.0
 20
210.0
  9
$ORTHOMODE
 70
     1
  9
$REGENMODE
 70
     1
  9
$FILLMODE
 70
     1
  9
$QTEXTMODE
 70
     0
  9
$MIRRTEXT
 70
     1
  9
$DRAGMODE
 70
     2
  9
$LTSCALE
 40
1.0
  9
$OSMODE
 70
   959
  9
$ATTMODE
 70
     1
  9
$TEXTSIZE
 40
32.0
  9
$TRACEWID
 40
1.0
  9
$TEXTSTYLE
  7
STANDARD
  9
$CLAYER
  8
0
  9
$CELTYPE
  6
CONTINUOUS
  9
$CECOLOR
 62
     7
  9
$DIMSCALE
 40
1.0
  9
$DIMASZ
 40
3.0
  9
$DIMEXO
 40
1.0
  9
$DIMDLI
 40
0.0
  9
$DIMRND
 40
0.0
  9
$DIMDLE
 40
0.0
  9
$DIMEXE
 40
1.0
  9
$DIMTP
 40
0.0
  9
$DIMTM
 40
0.0
  9
$DIMTXT
 40
3.2000000000000002
  9
$DIMCEN
 40
0.0
  9
$DIMTSZ
 40
0.0
  9
$DIMTOL
 70
     0
  9
$DIMLIM
 70
     0
  9
$DIMTIH
 70
     0
  9
$DIMTOH
 70
     0
  9
$DIMSE1
 70
     0
  9
$DIMSE2
 70
     0
  9
$DIMTAD
 70
     1
  9
$DIMZIN
 70
     8
  9
$DIMBLK
  1

  9
$DIMASO
 70
     1
  9
$DIMSHO
 70
     1
  9
$DIMPOST
  1

  9
$DIMAPOST
  1

  9
$DIMALT
 70
     0
  9
$DIMALTD
 70
     2
  9
$DIMALTF
 40
0.04
  9
$DIMLFAC
 40
1.0
  9
$DIMTOFL
 70
     1
  9
$DIMTVP
 40
1.0
  9
$DIMTIX
 70
     1
  9
$DIMSOXD
 70
     0
  9
$DIMSAH
 70
     0
  9
$DIMBLK1
  1

  9
$DIMBLK2
  1

  9
$DIMSTYLE
  2
MISUMI
  9
$DIMCLRD
 70
     0
  9
$DIMCLRE
 70
     0
  9
$DIMCLRT
 70
     0
  9
$DIMTFAC
 40
0.6
  9
$DIMGAP
 40
1.0
  9
$LUNITS
 70
     2
  9
$LUPREC
 70
     2
  9
$SKETCHINC
 40
1.0
  9
$FILLETRAD
 40
10.0
  9
$AUNITS
 70
     0
  9
$AUPREC
 70
     0
  9
$MENU
  1
acad
  9
$ELEVATION
 40
0.0
  9
$PELEVATION
 40
0.0
  9
$THICKNESS
 40
0.0
  9
$LIMCHECK
 70
     0
  9
$BLIPMODE
 70
     0
  9
$CHAMFERA
 40
0.0
  9
$CHAMFERB
 40
0.0
  9
$SKPOLY
 70
     0
  9
$TDCREATE
 40
2451466.6344030439
  9
$TDUPDATE
 40
2454858.662297477
  9
$TDINDWG
 40
0.2324735185
  9
$TDUSRTIMER
 40
0.2324644097
  9
$USRTIMER
 70
     1
  9
$ANGBASE
 50
0.0
  9
$ANGDIR
 70
     0
  9
$PDMODE
 70
    64
  9
$PDSIZE
 40
0.0
  9
$PLINEWID
 40
0.0
  9
$COORDS
 70
     1
  9
$SPLFRAME
 70
     0
  9
$SPLINETYPE
 70
     6
  9
$SPLINESEGS
 70
     8
  9
$ATTDIA
 70
     0
  9
$ATTREQ
 70
     1
  9
$HANDLING
 70
     1
  9
$HANDSEED
  5
39AE
  9
$SURFTAB1
 70
     6
  9
$SURFTAB2
 70
     6
  9
$SURFTYPE
 70
     6
  9
$SURFU
 70
     6
  9
$SURFV
 70
     6
  9
$UCSNAME
  2

  9
$UCSORG
 10
0.0
 20
0.0
 30
0.0
  9
$UCSXDIR
 10
1.0
 20
0.0
 30
0.0
  9
$UCSYDIR
 10
0.0
 20
1.0
 30
0.0
  9
$PUCSNAME
  2

  9
$PUCSORG
 10
0.0
 20
0.0
 30
0.0
  9
$PUCSXDIR
 10
1.0
 20
0.0
 30
0.0
  9
$PUCSYDIR
 10
0.0
 20
1.0
 30
0.0
  9
$USERI1
 70
     0
  9
$USERI2
 70
     0
  9
$USERI3
 70
     0
  9
$USERI4
 70
     0
  9
$USERI5
 70
     0
  9
$USERR1
 40
0.0
  9
$USERR2
 40
0.0
  9
$USERR3
 40
0.0
  9
$USERR4
 40
0.0
  9
$USERR5
 40
0.0
  9
$WORLDVIEW
 70
     1
  9
$SHADEDGE
 70
     3
  9
$SHADEDIF
 70
    70
  9
$TILEMODE
 70
     1
  9
$MAXACTVP
 70
    16
  9
$PLIMCHECK
 70
     0
  9
$PEXTMIN
 10
1.1220660220010641
 20
1.2541829758580321
 30
-0.0000000349181948
  9
$PEXTMAX
 10
10.10483102934913
 20
7.2038967536331251
 30
0.0000000814935747
  9
$PLIMMIN
 10
0.9377616454886895
 20
1.0698785694216071
  9
$PLIMMAX
 10
10.25592686256428
 20
7.6583461202838272
  9
$UNITMODE
 70
     0
  9
$VISRETAIN
 70
     0
  9
$PLINEGEN
 70
     0
  9
$PSLTSCALE
 70
     0
  0
ENDSEC
  0
SECTION
  2
TABLES
  0
TABLE
  2
VPORT
 70
     1
  0
VPORT
  2
*ACTIVE
 70
     0
 10
0.0
 20
0.0
 11
1.0
 21
1.0
 12
1490.3729478660489
 22
322.9992234106922
 13
0.0
 23
0.0
 14
10.0
 24
10.0
 15
0.0
 25
0.0
 16
0.0
 26
0.0
 36
1.0
 17
0.0
 27
0.0
 37
0.0
 40
381.55109339757678
 41
1.4974619289340101
 42
50.0
 43
0.0
 44
0.0
 50
0.0
 51
0.0
 71
     0
 72
   100
 73
     1
 74
     0
 75
     0
 76
     0
 77
     0
 78
     1
  0
ENDTAB
  0
TABLE
  2
LTYPE
 70
     3
  0
LTYPE
  2
CONTINUOUS
 70
     0
  3
Solid line
 72
    65
 73
     0
 40
0.0
  0
LTYPE
  2
DASHED
 70
     0
  3
__ __ __ __ __ __ __ __ __ __ __ __ __ __ __
 72
    65
 73
     2
 40
3.5
 49
2.0
 49
-1.5
  0
LTYPE
  2
CENTER
 70
     0
  3
____ _ ____ _ ____ _ ____ _ ____ _ ____ _ ____
 72
    65
 73
     4
 40
17.5
 49
13.0
 49
-1.5
 49
1.5
 49
-1.5
  0
ENDTAB
  0
TABLE
  2
LAYER
 70
     3
  0
LAYER
  2
0
 70
     0
 62
     7
  6
CONTINUOUS
  0
LAYER
  2
CENTER
 70
     0
 62
     1
  6
CENTER
  0
ENDTAB
  0
TABLE
  2
STYLE
 70
     1
  0
STYLE
  2
STANDARD
 70
     0
 40
0.0
 41
1.0
 50
0.0
 71
     0
 42
32.0
  3
txt.shx
  4
@extfont2.shx
  0
ENDTAB
  0
TABLE
  2
VIEW
 70
     0
  0
ENDTAB
  0
TABLE
  2
UCS
 70
     0
  0
ENDTAB
  0
TABLE
  2
APPID
 70
     5
  0
APPID
  2
ACAD
 70
     0
  0
APPID
  2
ACAECLAYERSTANDARD
 70
     0
  0
APPID
  2
ACAD_EXEMPT_FROM_CAD_STANDARDS
 70
     0
  0
APPID
  2
ACAD_PSEXT
 70
     0
  0
APPID
  2
ACAD_MLEADERVER
 70
     0
  0
ENDTAB
  0
TABLE
  2
DIMSTYLE
 70
     1
  0
DIMSTYLE
  2
MISUMI
 70
     0
  3

  4

  5

  6

  7

 40
1.0
 41
3.0
 42
1.0
 43
0.0
 44
1.0
 45
0.0
 46
0.0
 47
0.0
 48
0.0
140
3.2000000000000002
141
0.0
142
0.0
143
0.04
144
1.0
145
1.0
146
0.6
147
1.0
 71
     0
 72
     0
 73
     0
 74
     0
 75
     0
 76
     0
 77
     1
 78
     8
170
     0
171
     2
172
     1
173
     0
174
     1
175
     0
176
     0
177
     0
178
     0
  0
ENDTAB
  0
ENDSEC
  0
SECTION
  2
BLOCKS
  0
BLOCK
  8
0
  2
$MODEL_SPACE
 70
     0
 10
0.0
 20
0.0
 30
0.0
  3
$MODEL_SPACE
  1

  0
ENDBLK
  5
38F5
  8
0
  0
BLOCK
 67
     1
  8
0
  2
$PAPER_SPACE
 70
     0
 10
0.0
 20
0.0
 30
0.0
  3
$PAPER_SPACE
  1

  0
ENDBLK
  5
38F1
 67
     1
  8
0
  0
ENDSEC
  0
SECTION
  2
ENTITIES
  0
LINE
  5
12C1
  8
0
  6
CONTINUOUS
 62
     7
 10
1724.2537646109131
 20
241.3232660377148
 30
0.0
 11
1723.2537646109131
 21
241.3232660377148
 31
0.0
  0
LINE
  5
12C2
  8
0
  6
CONTINUOUS
 62
     7
 10
1724.2537646109131
 20
235.32326222291471
 30
0.0
 11
1723.2537646109131
 21
235.32326222291471
 31
0.0
  0
LINE
  5
12C3
  8
0
  6
CONTINUOUS
 62
     7
 10
1722.7537646109131
 20
234.32326222291479
 30
0.0
 11
1722.7537646109131
 21
242.32325840831481
 31
0.0
  0
LINE
  5
12C4
  8
0
  6
CONTINUOUS
 62
     7
 10
1734.7537646109131
 20
235.32326222291471
 30
0.0
 11
1726.553767662713
 21
235.32326222291471
 31
0.0
  0
LINE
  5
12C5
  8
0
  6
CONTINUOUS
 62
     7
 10
1734.7537646109131
 20
241.3232660377148
 30
0.0
 11
1726.553767662713
 21
241.3232660377148
 31
0.0
  0
LINE
  5
12C6
  8
0
  6
CONTINUOUS
 62
     7
 10
1735.253764610914
 20
240.82325840831481
 30
0.0
 11
1735.253764610914
 21
235.82326222291479
 31
0.0
  0
LINE
  5
12C7
  8
0
  6
CONTINUOUS
 62
     7
 10
1734.7537646109131
 20
240.82325840831481
 30
0.0
 11
1734.7537646109131
 21
235.82326222291479
 31
0.0
  0
LINE
  5
12C8
  8
0
  6
CONTINUOUS
 62
     7
 10
1734.7537646109131
 20
241.3232660377148
 30
0.0
 11
1735.253764610914
 21
240.82325840831481
 31
0.0
  0
LINE
  5
12C9
  8
0
  6
CONTINUOUS
 62
     7
 10
1735.253764610914
 20
235.82325840831481
 30
0.0
 11
1734.7537646109131
 21
235.32325840831481
 31
0.0
  0
LINE
  5
12CA
  8
0
  6
CONTINUOUS
 62
     7
 10
1722.7537646109131
 20
242.8232660377148
 30
0.0
 11
1716.7537646109131
 21
242.8232660377148
 31
0.0
  0
LINE
  5
12CB
  8
0
  6
CONTINUOUS
 62
     7
 10
1716.5537600330199
 20
247.82326603771531
 30
0.0
 11
1682.4863068373199
 21
247.82326603771469
 31
0.0
  0
LINE
  5
12CC
  8
0
  6
CONTINUOUS
 62
     7
 10
1722.7537646109131
 20
242.8232660377148
 30
0.0
 11
1723.2537646109131
 21
242.3232660377148
 31
0.0
  0
LINE
  5
12CD
  8
0
  6
CONTINUOUS
 62
     7
 10
1722.753749352313
 20
233.8232660377148
 30
0.0
 11
1723.253749352313
 21
234.3232660377148
 31
0.0
  0
LINE
  5
12CE
  8
0
  6
CONTINUOUS
 62
     7
 10
1716.7537646109131
 20
229.0232629859147
 30
0.0
 11
1716.7537646109131
 21
247.6232614599148
 31
0.0
  0
LINE
  5
12CF
  8
0
  6
CONTINUOUS
 62
     7
 10
1716.5537714772399
 20
228.82326222291479
 30
0.0
 11
1681.8219685108761
 21
228.82326222291479
 31
0.0
  0
LINE
  5
12D0
  8
0
  6
CONTINUOUS
 62
     7
 10
1722.7537646109131
 20
233.82326222291479
 30
0.0
 11
1716.7537646109131
 21
233.82326222291479
 31
0.0
  0
LINE
  5
12D1
  8
0
  6
CONTINUOUS
 62
     7
 10
1723.2537646109131
 20
234.32326222291479
 30
0.0
 11
1723.2537646109131
 21
242.32325840831481
 31
0.0
  0
LINE
  5
12D2
  8
0
  6
CONTINUOUS
 62
     7
 10
1716.553767662713
 20
228.82325840831481
 30
0.0
 11
1716.7537646109131
 21
229.02325917111469
 31
0.0
  0
LINE
  5
12D3
  8
0
  6
CONTINUOUS
 62
     7
 10
1716.553767662713
 20
247.82325840831481
 30
0.0
 11
1716.7537646109131
 21
247.62326908931479
 31
0.0
  0
LINE
  5
12D4
  8
0
  6
CONTINUOUS
 62
     7
 10
1716.153758507513
 20
228.82326222291479
 30
0.0
 11
1716.153758507513
 21
247.8232660377148
 31
0.0
  0
LINE
  5
12D5
  8
0
  6
CONTINUOUS
 62
     7
 10
1616.753749352313
 20
229.0232629859147
 30
0.0
 11
1616.753749352313
 21
230.32326222291479
 31
0.0
  0
LINE
  5
12D6
  8
0
  6
CONTINUOUS
 62
     7
 10
1610.253749352313
 20
234.32326222291479
 30
0.0
 11
1610.253749352313
 21
235.32326222291471
 31
0.0
  0
LINE
  5
12D7
  8
0
  6
CONTINUOUS
 62
     7
 10
1610.753756981713
 20
233.82326222291479
 30
0.0
 11
1619.424617272113
 21
233.82326222291479
 31
0.0
  0
LINE
  5
12D8
  8
0
  6
CONTINUOUS
 62
     7
 10
1616.9537615593131
 20
228.82326222291479
 30
0.0
 11
1681.815071531513
 21
228.82326222291479
 31
0.0
  0
LINE
  5
12D9
  8
CENTER
  6
CENTER
 62
     1
 10
1622.153773766313
 20
232.57326222291479
 30
0.0
 11
1618.253749352313
 21
232.57326222291479
 31
0.0
  0
LINE
  5
12DA
  8
0
  6
CONTINUOUS
 62
     7
 10
1610.753749352313
 20
233.8232698523147
 30
0.0
 11
1610.253749352313
 21
234.32326985231481
 31
0.0
  0
LINE
  5
12DB
  8
0
  6
CONTINUOUS
 62
     7
 10
1616.753749352313
 20
230.32326222291479
 30
0.0
 11
1616.753749352313
 21
233.82326222291479
 31
0.0
  0
LINE
  5
12DC
  8
0
  6
CONTINUOUS
 62
     7
 10
1622.153773766313
 20
230.82326222291479
 30
0.0
 11
1622.153773766313
 21
235.32326222291471
 31
0.0
  0
LINE
  5
12DD
  8
0
  6
CONTINUOUS
 62
     7
 10
1617.053767662713
 20
230.6232614599148
 30
0.0
 11
1621.9537615593131
 21
230.6232614599148
 31
0.0
  0
LINE
  5
12DE
  8
0
  6
CONTINUOUS
 62
     7
 10
1617.3537554557131
 20
228.82326222291479
 30
0.0
 11
1617.3537554557131
 21
230.0232629859147
 31
0.0
  0
LINE
  5
12DF
  8
0
  6
CONTINUOUS
 62
     7
 10
1618.253749352313
 20
231.0232629859147
 30
0.0
 11
1621.553767662713
 21
231.0232629859147
 31
0.0
  0
LINE
  5
12E0
  8
0
  6
CONTINUOUS
 62
     7
 10
1618.253749352313
 20
230.6232614599148
 30
0.0
 11
1618.253749352313
 21
233.82326222291479
 31
0.0
  0
LINE
  5
12E1
  8
0
  6
CONTINUOUS
 62
     7
 10
1617.753749352313
 20
230.6232614599148
 30
0.0
 11
1617.753749352313
 21
233.82326222291479
 31
0.0
  0
LINE
  5
12E2
  8
CENTER
  6
CENTER
 62
     1
 10
1620.253749352313
 20
230.6232614599148
 30
0.0
 11
1620.253749352313
 21
234.35011769171479
 31
0.0
  0
LINE
  5
12E3
  8
0
  6
CONTINUOUS
 62
     7
 10
1621.753749352313
 20
231.223263748715
 30
0.0
 11
1621.753749352313
 21
233.82326222291479
 31
0.0
  0
LINE
  5
12E4
  8
0
  6
CONTINUOUS
 62
     7
 10
1616.9537615593131
 20
228.82326222291479
 30
0.0
 11
1616.7537798697131
 21
229.02327061531469
 31
0.0
  0
LINE
  5
12E5
  8
0
  6
CONTINUOUS
 62
     7
 10
1622.3537554557131
 20
230.0232629859147
 30
0.0
 11
1682.041112496714
 21
230.0232629859147
 31
0.0
  0
LINE
  5
12E6
  8
0
  6
CONTINUOUS
 62
     7
 10
1622.753749352313
 20
230.42326069711501
 30
0.0
 11
1622.753749352313
 21
235.32326222291471
 31
0.0
  0
LINE
  5
12E7
  8
0
  6
CONTINUOUS
 62
     7
 10
1621.0829119499131
 20
233.82326222291479
 30
0.0
 11
1622.153773766313
 21
233.82326222291479
 31
0.0
  0
LINE
  5
12E8
  8
0
  6
CONTINUOUS
 62
     7
 10
1617.3537554557131
 20
230.0232629859147
 30
0.0
 11
1622.3537554557131
 21
230.0232629859147
 31
0.0
  0
LINE
  5
12E9
  8
0
  6
CONTINUOUS
 62
     7
 10
1616.9537615593131
 20
247.82325840831481
 30
0.0
 11
1616.753749352313
 21
247.62325383051481
 31
0.0
  0
LINE
  5
12EA
  8
0
  6
CONTINUOUS
 62
     7
 10
1610.7537798697131
 20
242.8232660377148
 30
0.0
 11
1610.253779869714
 21
242.3232660377148
 31
0.0
  0
LINE
  5
12EB
  8
0
  6
CONTINUOUS
 62
     7
 10
1616.753749352313
 20
246.3232660377148
 30
0.0
 11
1616.753749352313
 21
242.8232660377148
 31
0.0
  0
LINE
  5
12EC
  8
0
  6
CONTINUOUS
 62
     7
 10
1622.3537554557131
 20
246.6232614599148
 30
0.0
 11
1682.379451256513
 21
246.6232614599148
 31
0.0
  0
LINE
  5
12ED
  8
0
  6
CONTINUOUS
 62
     7
 10
1621.753749352313
 20
245.4232645117149
 30
0.0
 11
1621.753749352313
 21
242.8232660377148
 31
0.0
  0
LINE
  5
12EE
  8
0
  6
CONTINUOUS
 62
     7
 10
1618.253749352313
 20
245.6232614599148
 30
0.0
 11
1621.553767662713
 21
245.6232614599148
 31
0.0
  0
LINE
  5
12EF
  8
0
  6
CONTINUOUS
 62
     7
 10
1618.253749352313
 20
246.0232629859147
 30
0.0
 11
1618.253749352313
 21
242.8232660377148
 31
0.0
  0
LINE
  5
12F0
  8
0
  6
CONTINUOUS
 62
     7
 10
1617.753749352313
 20
246.0232629859147
 30
0.0
 11
1617.753749352313
 21
242.8232660377148
 31
0.0
  0
LINE
  5
12F1
  8
CENTER
  6
CENTER
 62
     1
 10
1620.253749352313
 20
246.0232629859147
 30
0.0
 11
1620.253749352313
 21
242.29640293951479
 31
0.0
  0
LINE
  5
12F2
  8
CENTER
  6
CENTER
 62
     1
 10
1622.153773766313
 20
244.0732660377148
 30
0.0
 11
1618.253749352313
 21
244.0732660377148
 31
0.0
  0
LINE
  5
12F3
  8
0
  6
CONTINUOUS
 62
     7
 10
1621.0829119499131
 20
242.8232660377148
 30
0.0
 11
1622.153773766313
 21
242.8232660377148
 31
0.0
  0
LINE
  5
12F4
  8
0
  6
CONTINUOUS
 62
     7
 10
1617.3537554557131
 20
247.8232660377148
 30
0.0
 11
1617.3537554557131
 21
246.6232614599148
 31
0.0
  0
LINE
  5
12F5
  8
0
  6
CONTINUOUS
 62
     7
 10
1617.053767662713
 20
246.0232629859147
 30
0.0
 11
1621.9537615593131
 21
246.0232629859147
 31
0.0
  0
LINE
  5
12F6
  8
0
  6
CONTINUOUS
 62
     7
 10
1622.153773766313
 20
245.8232660377148
 30
0.0
 11
1622.153773766313
 21
241.3232660377148
 31
0.0
  0
LINE
  5
12F7
  8
0
  6
CONTINUOUS
 62
     7
 10
1617.3537554557131
 20
246.6232614599148
 30
0.0
 11
1622.3537554557131
 21
246.6232614599148
 31
0.0
  0
LINE
  5
12F8
  8
0
  6
CONTINUOUS
 62
     7
 10
1622.753749352313
 20
246.22325993411519
 30
0.0
 11
1622.753749352313
 21
241.3232660377148
 31
0.0
  0
LINE
  5
12F9
  8
0
  6
CONTINUOUS
 62
     7
 10
1610.7537798697119
 20
242.8232660377144
 30
0.0
 11
1619.424617272113
 21
242.8232660377148
 31
0.0
  0
LINE
  5
12FA
  8
0
  6
CONTINUOUS
 62
     7
 10
1610.253749352313
 20
242.32325840831481
 30
0.0
 11
1610.253749352313
 21
241.3232660377148
 31
0.0
  0
LINE
  5
12FB
  8
CENTER
  6
CENTER
 62
     1
 10
1604.2536490611899
 20
240.2252798163166
 30
0.0
 11
1604.2536490611899
 21
236.42124462951671
 31
0.0
  0
LINE
  5
12FC
  8
0
  6
CONTINUOUS
 62
     7
 10
1599.253749352313
 20
235.32326222291471
 30
0.0
 11
1682.197970274513
 21
235.32326222291471
 31
0.0
  0
LINE
  5
12FD
  8
0
  6
CONTINUOUS
 62
     7
 10
1599.253749352313
 20
241.32326603771429
 30
0.0
 11
1681.9157519157129
 21
241.3232660377148
 31
0.0
  0
LINE
  5
12FE
  8
0
  6
CONTINUOUS
 62
     7
 10
1616.753749352313
 20
247.6232614599148
 30
0.0
 11
1616.753749352313
 21
246.3232660377148
 31
0.0
  0
LINE
  5
12FF
  8
CENTER
  6
CENTER
 62
     1
 10
1595.315364342513
 20
238.32326222291479
 30
0.0
 11
1774.496875267713
 21
238.32326222291479
 31
0.0
  0
LINE
  5
1300
  8
0
  6
CONTINUOUS
 62
     7
 10
1616.9537615593131
 20
247.8232660377148
 30
0.0
 11
1682.484431725313
 21
247.8232660377148
 31
0.0
  0
LINE
  5
1301
  8
0
  6
CONTINUOUS
 62
     7
 10
1724.2537646109131
 20
241.7141303076437
 30
0.0
 11
1724.2537646109131
 21
190.8641329779264
 31
0.0
  0
LINE
  5
1302
  8
0
  6
CONTINUOUS
 62
     7
 10
1726.553767662713
 20
241.7157810912208
 30
0.0
 11
1726.553767662713
 21
190.8657837614827
 31
0.0
  0
LINE
  5
1303
  8
0
  6
CONTINUOUS
 62
     7
 10
1754.2537646109131
 20
188.57326241371459
 30
0.0
 11
1754.2537646109131
 21
186.2732622229147
 31
0.0
  0
LINE
  5
1304
  8
0
  6
CONTINUOUS
 62
     7
 10
1754.2537646109131
 20
244.0232629859147
 30
0.0
 11
1728.8537554557131
 21
244.0232629859147
 31
0.0
  0
LINE
  5
1305
  8
0
  6
CONTINUOUS
 62
     7
 10
1754.2537646109131
 20
188.57326241371459
 30
0.0
 11
1728.8537554557131
 21
188.57326241371459
 31
0.0
  0
LINE
  5
1306
  8
0
  6
CONTINUOUS
 62
     7
 10
1754.2537646109131
 20
246.3232660377148
 30
0.0
 11
1728.8537554557131
 21
246.3232660377148
 31
0.0
  0
LINE
  5
1307
  8
0
  6
CONTINUOUS
 62
     7
 10
1754.2537646109131
 20
246.3232660377148
 30
0.0
 11
1754.2537646109131
 21
244.0232629859147
 31
0.0
  0
LINE
  5
1308
  8
0
  6
CONTINUOUS
 62
     7
 10
1754.2537646109131
 20
186.2732622229147
 30
0.0
 11
1728.8537554557131
 21
186.2732622229147
 31
0.0
  0
LINE
  5
1309
  8
0
  6
CONTINUOUS
 62
     7
 10
1609.253749352313
 20
235.32326222291471
 30
0.0
 11
1609.253749352313
 21
190.8583049801218
 31
0.0
  0
LINE
  5
130A
  8
0
  6
CONTINUOUS
 62
     7
 10
1606.9537615593131
 20
235.32326222291471
 30
0.0
 11
1606.9537615593131
 21
190.8657837615626
 31
0.0
  0
POLYLINE
  5
130B
  8
0
  6
CONTINUOUS
 62
     3
 66
     1
 10
0.0
 20
0.0
 30
0.0
  0
VERTEX
  5
3964
  8
0
  6
CONTINUOUS
 62
     3
 10
1681.897057824913
 20
251.22563795351471
 30
0.0
  0
VERTEX
  5
3965
  8
0
  6
CONTINUOUS
 62
     3
 10
1682.2018217587131
 20
250.6916726927148
 30
0.0
 42
-0.039012516
  0
VERTEX
  5
3966
  8
0
  6
CONTINUOUS
 62
     3
 10
1682.521918266913
 20
249.61813176311489
 30
0.0
 42
-0.035085392
  0
VERTEX
  5
3967
  8
0
  6
CONTINUOUS
 62
     3
 10
1682.557722199713
 20
248.53953968671479
 30
0.0
 42
-0.022315956
  0
VERTEX
  5
3968
  8
0
  6
CONTINUOUS
 62
     3
 10
1682.433427384713
 20
247.4585896029148
 30
0.0
 42
-0.004041285
  0
VERTEX
  5
3969
  8
0
  6
CONTINUOUS
 62
     3
 10
1682.4026357033131
 20
246.3652253479149
 30
0.0
 42
0.045166453
  0
VERTEX
  5
396A
  8
0
  6
CONTINUOUS
 62
     3
 10
1682.605065003313
 20
245.260610632115
 30
0.0
 42
-0.011436643
  0
VERTEX
  5
396B
  8
0
  6
CONTINUOUS
 62
     3
 10
1682.556902154113
 20
244.2072960595151
 30
0.0
 42
-0.079704701
  0
VERTEX
  5
396C
  8
0
  6
CONTINUOUS
 62
     3
 10
1682.066123519113
 20
243.21939261711481
 30
0.0
 42
0.010272104
  0
VERTEX
  5
396D
  8
0
  6
CONTINUOUS
 62
     3
 10
1681.8455637259131
 20
242.17441998091499
 30
0.0
 42
0.058765372
  0
VERTEX
  5
396E
  8
0
  6
CONTINUOUS
 62
     3
 10
1681.928393586712
 20
241.0666171601151
 30
0.0
 42
-0.019215685
  0
VERTEX
  5
396F
  8
0
  6
CONTINUOUS
 62
     3
 10
1681.9084220321131
 20
239.9705339759148
 30
0.0
 42
-0.002976488
  0
VERTEX
  5
3970
  8
0
  6
CONTINUOUS
 62
     3
 10
1681.9111708683131
 20
238.88459324291489
 30
0.0
 42
0.019303053
  0
VERTEX
  5
3971
  8
0
  6
CONTINUOUS
 62
     3
 10
1682.1177145159129
 20
237.79819128491499
 30
0.0
 42
0.022727089
  0
VERTEX
  5
3972
  8
0
  6
CONTINUOUS
 62
     3
 10
1682.406299597513
 20
236.71903008591471
 30
0.0
 42
-0.026052631
  0
VERTEX
  5
3973
  8
0
  6
CONTINUOUS
 62
     3
 10
1682.3436189261131
 20
235.67362731871489
 30
0.0
 42
-0.072829685
  0
VERTEX
  5
3974
  8
0
  6
CONTINUOUS
 62
     3
 10
1681.8413652009131
 20
234.6664187651148
 30
0.0
 42
-0.008057437
  0
VERTEX
  5
3975
  8
0
  6
CONTINUOUS
 62
     3
 10
1681.4017434837131
 20
233.66413112471491
 30
0.0
 42
0.054014681
  0
VERTEX
  5
3976
  8
0
  6
CONTINUOUS
 62
     3
 10
1681.4931637087129
 20
232.63405103911509
 30
0.0
 42
0.050067806
  0
VERTEX
  5
3977
  8
0
  6
CONTINUOUS
 62
     3
 10
1681.887609164713
 20
231.57537726571491
 30
0.0
 42
-0.012460663
  0
VERTEX
  5
3978
  8
0
  6
CONTINUOUS
 62
     3
 10
1682.067876690513
 20
230.50174679491511
 30
0.0
 42
-0.040526779
  0
VERTEX
  5
3979
  8
0
  6
CONTINUOUS
 62
     3
 10
1681.9465459641131
 20
229.41992001891501
 30
0.0
 42
-0.019042215
  0
VERTEX
  5
397A
  8
0
  6
CONTINUOUS
 62
     3
 10
1681.699808580513
 20
228.33240390351509
 30
0.0
 42
0.001139263
  0
VERTEX
  5
397B
  8
0
  6
CONTINUOUS
 62
     3
 10
1681.507315785113
 20
227.24164959231479
 30
0.0
 42
0.020737986
  0
VERTEX
  5
397C
  8
0
  6
CONTINUOUS
 62
     3
 10
1681.519408198913
 20
226.1505811613151
 30
0.0
 42
0.031837985
  0
VERTEX
  5
397D
  8
0
  6
CONTINUOUS
 62
     3
 10
1681.6329389241121
 20
225.60610457891471
 30
0.0
  0
VERTEX
  5
397E
  8
0
  6
CONTINUOUS
 62
     3
 10
1681.6329389241121
 20
225.60610457891471
 30
0.0
  0
VERTEX
  5
397F
  8
0
  6
CONTINUOUS
 62
     3
 10
1681.6329389241121
 20
225.60610457891471
 30
0.0
  0
VERTEX
  5
3980
  8
0
  6
CONTINUOUS
 62
     3
 10
1681.6329389241121
 20
225.60610457891471
 30
0.0
  0
VERTEX
  5
3981
  8
0
  6
CONTINUOUS
 62
     3
 10
1681.6329389241121
 20
225.60610457891471
 30
0.0
  0
VERTEX
  5
3982
  8
0
  6
CONTINUOUS
 62
     3
 10
1681.6329389241121
 20
225.60610457891471
 30
0.0
  0
VERTEX
  5
3983
  8
0
  6
CONTINUOUS
 62
     3
 10
1681.6329389241121
 20
225.60610457891471
 30
0.0
  0
VERTEX
  5
3984
  8
0
  6
CONTINUOUS
 62
     3
 10
1681.6329389241121
 20
225.60610457891471
 30
0.0
  0
VERTEX
  5
3985
  8
0
  6
CONTINUOUS
 62
     3
 10
1681.6329389241121
 20
225.60610457891471
 30
0.0
  0
VERTEX
  5
3986
  8
0
  6
CONTINUOUS
 62
     3
 10
1681.6329389241121
 20
225.60610457891471
 30
0.0
  0
VERTEX
  5
3987
  8
0
  6
CONTINUOUS
 62
     3
 10
1681.6329389241121
 20
225.60610457891471
 30
0.0
  0
VERTEX
  5
3988
  8
0
  6
CONTINUOUS
 62
     3
 10
1681.6329389241121
 20
225.60610457891471
 30
0.0
  0
VERTEX
  5
3989
  8
0
  6
CONTINUOUS
 62
     3
 10
1681.6329389241121
 20
225.60610457891471
 30
0.0
  0
VERTEX
  5
398A
  8
0
  6
CONTINUOUS
 62
     3
 10
1681.6329389241121
 20
225.60610457891471
 30
0.0
  0
VERTEX
  5
398B
  8
0
  6
CONTINUOUS
 62
     3
 10
1681.6329389241121
 20
225.60610457891471
 30
0.0
  0
VERTEX
  5
398C
  8
0
  6
CONTINUOUS
 62
     3
 10
1681.6329389241121
 20
225.60610457891471
 30
0.0
  0
VERTEX
  5
398D
  8
0
  6
CONTINUOUS
 62
     3
 10
1681.6329389241121
 20
225.60610457891471
 30
0.0
  0
VERTEX
  5
398E
  8
0
  6
CONTINUOUS
 62
     3
 10
1681.6329389241121
 20
225.60610457891471
 30
0.0
  0
VERTEX
  5
398F
  8
0
  6
CONTINUOUS
 62
     3
 10
1681.6329389241121
 20
225.60610457891471
 30
0.0
  0
VERTEX
  5
3990
  8
0
  6
CONTINUOUS
 62
     3
 10
1681.6329389241121
 20
225.60610457891471
 30
0.0
  0
VERTEX
  5
3991
  8
0
  6
CONTINUOUS
 62
     3
 10
1681.6329389241121
 20
225.60610457891471
 30
0.0
  0
VERTEX
  5
3992
  8
0
  6
CONTINUOUS
 62
     3
 10
1681.6329389241121
 20
225.60610457891471
 30
0.0
  0
VERTEX
  5
3993
  8
0
  6
CONTINUOUS
 62
     3
 10
1681.6329389241121
 20
225.60610457891471
 30
0.0
  0
VERTEX
  5
3994
  8
0
  6
CONTINUOUS
 62
     3
 10
1681.6329389241121
 20
225.60610457891471
 30
0.0
  0
VERTEX
  5
3995
  8
0
  6
CONTINUOUS
 62
     3
 10
1681.6329389241121
 20
225.60610457891471
 30
0.0
  0
VERTEX
  5
3996
  8
0
  6
CONTINUOUS
 62
     3
 10
1681.6329389241121
 20
225.60610457891471
 30
0.0
  0
VERTEX
  5
3997
  8
0
  6
CONTINUOUS
 62
     3
 10
1681.6329389241121
 20
225.60610457891471
 30
0.0
  0
VERTEX
  5
3998
  8
0
  6
CONTINUOUS
 62
     3
 10
1681.6329389241121
 20
225.60610457891471
 30
0.0
  0
VERTEX
  5
3999
  8
0
  6
CONTINUOUS
 62
     3
 10
1681.6329389241121
 20
225.60610457891471
 30
0.0
  0
VERTEX
  5
399A
  8
0
  6
CONTINUOUS
 62
     3
 10
1681.6329389241121
 20
225.60610457891471
 30
0.0
  0
VERTEX
  5
399B
  8
0
  6
CONTINUOUS
 62
     3
 10
1681.6329389241121
 20
225.60610457891471
 30
0.0
  0
VERTEX
  5
399C
  8
0
  6
CONTINUOUS
 62
     3
 10
1681.6329389241121
 20
225.60610457891471
 30
0.0
  0
SEQEND
  5
399D
  8
0
  6
CONTINUOUS
 62
     3
  0
LINE
  5
130D
  8
0
  6
CONTINUOUS
 62
     7
 10
1579.253749352313
 20
188.57326241371459
 30
0.0
 11
1579.253749352313
 21
186.2732622229147
 31
0.0
  0
LINE
  5
130E
  8
0
  6
CONTINUOUS
 62
     7
 10
1579.253749352313
 20
244.0232629859147
 30
0.0
 11
1604.653773766313
 21
244.0232629859147
 31
0.0
  0
LINE
  5
130F
  8
0
  6
CONTINUOUS
 62
     7
 10
1579.253749352313
 20
188.57326241371459
 30
0.0
 11
1604.653773766313
 21
188.57326241371459
 31
0.0
  0
LINE
  5
1310
  8
0
  6
CONTINUOUS
 62
     7
 10
1606.9537615593131
 20
241.72325993411511
 30
0.0
 11
1606.9537615593131
 21
241.3232660377148
 31
0.0
  0
LINE
  5
1311
  8
0
  6
CONTINUOUS
 62
     7
 10
1579.253749352313
 20
246.3232660377148
 30
0.0
 11
1604.653773766313
 21
246.3232660377148
 31
0.0
  0
LINE
  5
1312
  8
0
  6
CONTINUOUS
 62
     7
 10
1579.253749352313
 20
246.3232660377148
 30
0.0
 11
1579.253749352313
 21
244.0232629859147
 31
0.0
  0
LINE
  5
1313
  8
0
  6
CONTINUOUS
 62
     7
 10
1609.253749352313
 20
241.72325993411511
 30
0.0
 11
1609.253749352313
 21
241.3232660377148
 31
0.0
  0
LINE
  5
1314
  8
0
  6
CONTINUOUS
 62
     7
 10
1579.253749352313
 20
186.2732622229147
 30
0.0
 11
1604.653773766313
 21
186.2732622229147
 31
0.0
  0
ARC
  5
1315
  8
0
  6
CONTINUOUS
 62
     7
 10
1604.653773766313
 20
241.72325993411511
 30
0.0
 40
2.2999999523999981
 50
0.0
 51
90.000002504937669
  0
ARC
  5
1316
  8
0
  6
CONTINUOUS
 62
     7
 10
1604.653773766313
 20
190.87326260431479
 30
0.0
 40
2.2999999523999981
 50
269.9999974949319
 51
0.0
  0
ARC
  5
1317
  8
0
  6
CONTINUOUS
 62
     7
 10
1604.653773766313
 20
190.87326260431479
 30
0.0
 40
4.5999999045999971
 50
269.9999974949319
 51
0.0
  0
ARC
  5
1318
  8
0
  6
CONTINUOUS
 62
     7
 10
1604.653773766313
 20
241.72325993411511
 30
0.0
 40
4.5999999045999971
 50
0.0
 51
90.000002504937669
  0
ARC
  5
1319
  8
0
  6
CONTINUOUS
 62
     7
 10
1728.8537554557131
 20
241.72325993411511
 30
0.0
 40
4.5999999045999971
 50
90.000002504937669
 51
180.0000050089634
  0
ARC
  5
131A
  8
0
  6
CONTINUOUS
 62
     7
 10
1728.8537554557131
 20
190.87326260431479
 30
0.0
 40
2.2999999523999981
 50
179.9999913480118
 51
270.00000068303461
  0
ARC
  5
131B
  8
0
  6
CONTINUOUS
 62
     7
 10
1728.8537554557131
 20
241.72325993411511
 30
0.0
 40
2.2999999523999981
 50
90.000002504937669
 51
180.0000050089634
  0
ARC
  5
131C
  8
0
  6
CONTINUOUS
 62
     7
 10
1728.8537554557131
 20
190.87326260431479
 30
0.0
 40
4.5999999045999971
 50
179.9999913480118
 51
270.00000068303461
  0
CIRCLE
  5
131D
  8
0
  6
CONTINUOUS
 62
     7
 10
1620.253749352313
 20
244.0732660377148
 30
0.0
 40
1.5
  0
ARC
  5
131E
  8
0
  6
CONTINUOUS
 62
     7
 10
1621.553767662713
 20
245.4232645117149
 30
0.0
 40
0.2000000029999998
 50
0.0
 51
90.000002504937669
  0
ARC
  5
131F
  8
0
  6
CONTINUOUS
 62
     7
 10
1621.9537615593131
 20
245.8232660377148
 30
0.0
 40
0.2000000029999998
 50
0.0
 51
90.000002504937669
  0
ARC
  5
1320
  8
0
  6
CONTINUOUS
 62
     7
 10
1622.3537554557131
 20
246.22325993411519
 30
0.0
 40
0.4000000059999998
 50
0.0
 51
90.000002504937669
  0
ARC
  5
1321
  8
0
  6
CONTINUOUS
 62
     7
 10
1617.053767662713
 20
246.3232660377148
 30
0.0
 40
0.300000012
 50
179.9999913480118
 51
270.00000068303461
  0
ARC
  5
1322
  8
0
  6
CONTINUOUS
 62
     7
 10
1622.3537554557131
 20
230.42326069711501
 30
0.0
 40
0.4000000059999998
 50
269.9999974949319
 51
0.0
  0
CIRCLE
  5
1330
  8
0
  6
CONTINUOUS
 62
     7
 10
1620.253749352313
 20
232.57326222291479
 30
0.0
 40
1.5
  0
ARC
  5
1331
  8
0
  6
CONTINUOUS
 62
     7
 10
1617.053767662713
 20
230.32326222291479
 30
0.0
 40
0.300000012
 50
90.000002504937669
 51
180.0000050089634
  0
ARC
  5
1332
  8
0
  6
CONTINUOUS
 62
     7
 10
1621.9537615593131
 20
230.82326222291479
 30
0.0
 40
0.2000000029999998
 50
269.9999974949319
 51
0.0
  0
ARC
  5
1333
  8
0
  6
CONTINUOUS
 62
     7
 10
1621.553767662713
 20
231.223263748715
 30
0.0
 40
0.2000000029999998
 50
269.9999974949319
 51
0.0
  0
LINE
  5
1336
  8
CENTER
  6
CENTER
 62
     1
 10
1524.5123497813099
 20
242.51627738011479
 30
0.0
 11
1524.5123497813099
 21
233.45187871271489
 31
0.0
  0
LINE
  5
1337
  8
CENTER
  6
CENTER
 62
     1
 10
1521.5025050745101
 20
238.32326222291479
 30
0.0
 11
1528.5836505827101
 21
238.32326222291479
 31
0.0
  0
LINE
  5
1338
  8
0
  6
CONTINUOUS
 62
     7
 10
1523.8123497813101
 20
240.4089275843148
 30
0.0
 11
1523.8123497813101
 21
236.23759686151519
 31
0.0
  0
LINE
  5
1339
  8
0
  6
CONTINUOUS
 62
     7
 10
1523.0123497813099
 20
240.92133843431469
 30
0.0
 11
1523.0123497813099
 21
235.72518601151481
 31
0.0
  0
ARC
  5
133A
  8
0
  6
CONTINUOUS
 62
     7
 10
1524.5123497813099
 20
238.32326222291479
 30
0.0
 40
2.2000000000000002
 50
251.44699546499001
 51
108.55300453501
  0
ARC
  5
133B
  8
0
  6
CONTINUOUS
 62
     7
 10
1524.5123497813099
 20
238.32326222291479
 30
0.0
 40
3.0
 50
240.0000000000114
 51
119.9999999999886
  0
LINE
  5
133F
  8
0
  6
DASHED
 62
     3
 10
1681.9294725829709
 20
240.5495473505521
 30
0.0
 11
1608.177995208426
 21
240.5495473505521
 31
0.0
  0
LINE
  5
1340
  8
0
  6
DASHED
 62
     3
 10
1682.3821833662089
 20
236.09697709532571
 30
0.0
 11
1608.177548770067
 21
236.09697709528101
 31
0.0
  0
CIRCLE
  5
1343
  8
0
  6
CONTINUOUS
 62
     7
 10
1604.2536490611899
 20
238.3232622229167
 30
0.0
 40
1.25
  0
LINE
  5
1344
  8
0
  6
CONTINUOUS
 62
     7
 10
1609.2535261330961
 20
236.09697861824941
 30
0.0
 11
1609.253972571531
 21
240.54954964237959
 31
0.0
  0
ARC
  5
1345
  8
0
  6
CONTINUOUS
 62
     7
 10
1607.2264641687229
 20
238.3234673967018
 30
0.0
 40
3.011018513389625
 50
312.31566540368618
 51
47.672845037654049
  0
LINE
  5
1346
  8
0
  6
CONTINUOUS
 62
     7
 10
1599.253749352313
 20
235.32326222291471
 30
0.0
 11
1599.253749352313
 21
241.32326603771429
 31
0.0
  0
LINE
  5
13A7
  8
0
  6
CONTINUOUS
 62
     7
 10
1262.0722261127371
 20
468.74130065555659
 30
0.0
 11
1432.072226112738
 21
468.74130065555659
 31
0.0
  0
LINE
  5
13A8
  8
0
  6
CONTINUOUS
 62
     7
 10
1262.0722261127371
 20
353.74130065555568
 30
0.0
 11
1432.072226112738
 21
353.74130065555568
 31
0.0
  0
LINE
  5
13AA
  8
0
  6
CONTINUOUS
 62
     7
 10
1262.0722261127371
 20
323.74130065555568
 30
0.0
 11
1432.072226112738
 21
323.74130065555568
 31
0.0
  0
LINE
  5
13AB
  8
0
  6
CONTINUOUS
 62
     7
 10
1262.0722261127371
 20
498.74130065555732
 30
0.0
 11
1432.072226112738
 21
498.74130065555732
 31
0.0
  0
LINE
  5
1531
  8
0
  6
CONTINUOUS
 62
     7
 10
1432.0720735247401
 20
188.5732622229157
 30
0.0
 11
1262.0722261127371
 21
188.5732622229155
 31
0.0
  0
LINE
  5
1532
  8
0
  6
CONTINUOUS
 62
     7
 10
1432.0720735247401
 20
245.52326222291461
 30
0.0
 11
1262.0722261127371
 21
245.52326222291461
 31
0.0
  0
LINE
  5
1533
  8
0
  6
CONTINUOUS
 62
     7
 10
1432.0720735247401
 20
247.82326222291471
 30
0.0
 11
1262.0722261127371
 21
247.82326222291471
 31
0.0
  0
LINE
  5
1534
  8
0
  6
CONTINUOUS
 62
     7
 10
1262.0722261127371
 20
186.2732622229147
 30
0.0
 11
1432.0720735247401
 21
186.2732622229147
 31
0.0
  0
LINE
  5
1538
  8
0
  6
CONTINUOUS
 62
     7
 10
1432.072226112738
 20
353.74130065555568
 30
0.0
 11
1432.072226112738
 21
323.74130065555568
 31
0.0
  0
LINE
  5
1539
  8
0
  6
CONTINUOUS
 62
     7
 10
1432.072226112738
 20
468.74130065555659
 30
0.0
 11
1432.072226112738
 21
498.74130065555732
 31
0.0
  0
LINE
  5
153A
  8
0
  6
CONTINUOUS
 62
     7
 10
1432.0720735247401
 20
247.82326222291471
 30
0.0
 11
1432.0720735247401
 21
186.2732622229147
 31
0.0
  0
CIRCLE
  5
1608
  8
0
  6
CONTINUOUS
 62
     7
 10
1422.0720735247401
 20
238.32326222291479
 30
0.0
 40
3.0
  0
ARC
  5
1609
  8
0
  6
CONTINUOUS
 62
     7
 10
1422.0720735247401
 20
238.32326222291479
 30
0.0
 40
9.5
 50
57.363102496978129
 51
122.6368975030218
  0
LINE
  5
160A
  8
CENTER
  6
CENTER
 62
     1
 10
1434.1519249767391
 20
238.32326222291479
 30
0.0
 11
1409.9550906447389
 21
238.32326222291479
 31
0.0
  0
LINE
  5
160B
  8
CENTER
  6
CENTER
 62
     1
 10
1422.0720735247401
 20
249.58659007191361
 30
0.0
 11
1422.0720735247401
 21
226.5949620469132
 31
0.0
  0
ARC
  5
160C
  8
0
  6
DASHED
 62
     3
 10
1422.0720735247401
 20
238.32326222291479
 30
0.0
 40
9.5
 50
122.6368975030218
 51
57.363102496978129
  0
LINE
  5
20FF
  8
0
  6
CONTINUOUS
 62
     3
 10
1608.177995208425
 20
240.92133843426831
 30
0.0
 11
1599.253749352313
 21
240.92133843426831
 31
0.0
  0
LINE
  5
2101
  8
0
  6
CONTINUOUS
 62
     3
 10
1608.177548770067
 20
235.7251860115615
 30
0.0
 11
1599.253749352313
 21
235.7251860115615
 31
0.0
  0
TEXT
  5
2162
  8
0
  6
CONTINUOUS
 62
     7
 10
1206.1407023935351
 20
156.21689306631669
 30
0.0
 40
3.2000000000000002
  1
ROCON6-100
  0
TEXT
  5
2163
  8
0
  6
CONTINUOUS
 62
     7
 10
1206.1407023935351
 20
147.2617895267442
 30
0.0
 40
3.2000000000000002
  1
ROCON6
  0
CIRCLE
  5
26E8
  8
0
  6
CONTINUOUS
 62
     7
 10
1392.0720735247401
 20
238.32326222291479
 30
0.0
 40
3.0
  0
ARC
  5
26E9
  8
0
  6
CONTINUOUS
 62
     7
 10
1392.0720735247401
 20
238.32326222291479
 30
0.0
 40
9.5
 50
57.3631024969782
 51
122.6368975030218
  0
LINE
  5
26EA
  8
CENTER
  6
CENTER
 62
     1
 10
1404.1519249767391
 20
238.32326222291479
 30
0.0
 11
1379.9550906447371
 21
238.32326222291479
 31
0.0
  0
LINE
  5
26EB
  8
CENTER
  6
CENTER
 62
     1
 10
1392.0720735247401
 20
249.58659007191361
 30
0.0
 11
1392.0720735247401
 21
226.5949620469132
 31
0.0
  0
ARC
  5
26EC
  8
0
  6
DASHED
 62
     3
 10
1392.0720735247401
 20
238.32326222291479
 30
0.0
 40
9.5
 50
122.6368975030218
 51
57.3631024969782
  0
CIRCLE
  5
26ED
  8
0
  6
CONTINUOUS
 62
     7
 10
1362.072073524738
 20
238.32326222291479
 30
0.0
 40
3.0
  0
ARC
  5
26EE
  8
0
  6
CONTINUOUS
 62
     7
 10
1362.072073524738
 20
238.32326222291479
 30
0.0
 40
9.5
 50
57.3631024969782
 51
122.6368975030218
  0
LINE
  5
26EF
  8
CENTER
  6
CENTER
 62
     1
 10
1374.1519249767391
 20
238.32326222291479
 30
0.0
 11
1349.9550906447389
 21
238.32326222291479
 31
0.0
  0
LINE
  5
26F0
  8
CENTER
  6
CENTER
 62
     1
 10
1362.072073524738
 20
249.58659007191361
 30
0.0
 11
1362.072073524738
 21
226.5949620469132
 31
0.0
  0
ARC
  5
26F1
  8
0
  6
DASHED
 62
     3
 10
1362.072073524738
 20
238.32326222291479
 30
0.0
 40
9.5
 50
122.6368975030218
 51
57.3631024969782
  0
CIRCLE
  5
26F2
  8
0
  6
CONTINUOUS
 62
     7
 10
1332.0720735247389
 20
238.32326222291479
 30
0.0
 40
3.0
  0
ARC
  5
26F3
  8
0
  6
CONTINUOUS
 62
     7
 10
1332.0720735247389
 20
238.32326222291479
 30
0.0
 40
9.5
 50
57.363102496977866
 51
122.6368975030221
  0
LINE
  5
26F4
  8
CENTER
  6
CENTER
 62
     1
 10
1344.1519249767391
 20
238.32326222291479
 30
0.0
 11
1319.9550906447389
 21
238.32326222291479
 31
0.0
  0
LINE
  5
26F5
  8
CENTER
  6
CENTER
 62
     1
 10
1332.0720735247389
 20
249.58659007191361
 30
0.0
 11
1332.0720735247389
 21
226.5949620469132
 31
0.0
  0
ARC
  5
26F6
  8
0
  6
DASHED
 62
     3
 10
1332.0720735247389
 20
238.32326222291479
 30
0.0
 40
9.5
 50
122.6368975030221
 51
57.363102496977866
  0
CIRCLE
  5
26F7
  8
0
  6
CONTINUOUS
 62
     7
 10
1302.0720735247389
 20
238.32326222291479
 30
0.0
 40
3.0
  0
ARC
  5
26F8
  8
0
  6
CONTINUOUS
 62
     7
 10
1302.0720735247389
 20
238.32326222291479
 30
0.0
 40
9.5
 50
57.363102496977866
 51
122.6368975030221
  0
LINE
  5
26F9
  8
CENTER
  6
CENTER
 62
     1
 10
1314.1519249767391
 20
238.32326222291479
 30
0.0
 11
1289.9550906447389
 21
238.32326222291479
 31
0.0
  0
LINE
  5
26FA
  8
CENTER
  6
CENTER
 62
     1
 10
1302.0720735247389
 20
249.58659007191361
 30
0.0
 11
1302.0720735247389
 21
226.5949620469132
 31
0.0
  0
ARC
  5
26FB
  8
0
  6
DASHED
 62
     3
 10
1302.0720735247389
 20
238.32326222291479
 30
0.0
 40
9.5
 50
122.6368975030221
 51
57.363102496977866
  0
CIRCLE
  5
26FC
  8
0
  6
CONTINUOUS
 62
     7
 10
1272.0720735247389
 20
238.32326222291479
 30
0.0
 40
3.0
  0
ARC
  5
26FD
  8
0
  6
CONTINUOUS
 62
     7
 10
1272.0720735247389
 20
238.32326222291479
 30
0.0
 40
9.5
 50
57.363102496978563
 51
122.6368975030214
  0
LINE
  5
26FE
  8
CENTER
  6
CENTER
 62
     1
 10
1284.1519249767391
 20
238.32326222291479
 30
0.0
 11
1259.955090644738
 21
238.32326222291479
 31
0.0
  0
LINE
  5
26FF
  8
CENTER
  6
CENTER
 62
     1
 10
1272.0720735247389
 20
249.58659007191361
 30
0.0
 11
1272.0720735247389
 21
226.5949620469132
 31
0.0
  0
ARC
  5
2700
  8
0
  6
DASHED
 62
     3
 10
1272.0720735247389
 20
238.32326222291479
 30
0.0
 40
9.5
 50
122.6368975030214
 51
57.363102496978563
  0
LINE
  5
2BAC
  8
0
  6
CONTINUOUS
 62
     7
 10
1262.0722261127371
 20
353.74130065555568
 30
0.0
 11
1262.0722261127371
 21
323.74130065555568
 31
0.0
  0
LINE
  5
2BAD
  8
0
  6
CONTINUOUS
 62
     7
 10
1262.0722261127371
 20
468.74130065555659
 30
0.0
 11
1262.0722261127371
 21
498.74130065555732
 31
0.0
  0
LINE
  5
2BAE
  8
0
  6
CONTINUOUS
 62
     7
 10
1262.0720735247371
 20
247.82326222291471
 30
0.0
 11
1262.0720735247371
 21
186.2732622229147
 31
0.0
  0
LINE
  5
3137
  8
CENTER
  6
CENTER
 62
     1
 10
1422.0721498187379
 20
481.3757305875576
 30
0.0
 11
1422.0721498187379
 21
341.10687072355449
 31
0.0
  0
LINE
  5
3138
  8
0
  6
CONTINUOUS
 62
     7
 10
1426.572119300738
 20
361.24130065555568
 30
0.0
 11
1426.572119300738
 21
355.7412701375556
 31
0.0
  0
LINE
  5
3139
  8
0
  6
CONTINUOUS
 62
     7
 10
1426.572119300738
 20
461.24130065555647
 30
0.0
 11
1426.572119300738
 21
466.7411785855569
 31
0.0
  0
LINE
  5
313A
  8
0
  6
CONTINUOUS
 62
     7
 10
1417.572119300738
 20
466.7411785855569
 30
0.0
 11
1426.572119300738
 21
466.7411785855569
 31
0.0
  0
LINE
  5
313B
  8
0
  6
CONTINUOUS
 62
     7
 10
1417.572127748738
 20
355.74127013755549
 30
0.0
 11
1426.572119300738
 21
355.7412701375556
 31
0.0
  0
LINE
  5
313D
  8
0
  6
CONTINUOUS
 62
     7
 10
1412.5221498187379
 20
461.24130065555647
 30
0.0
 11
1431.6221498187381
 21
461.24130065555647
 31
0.0
  0
LINE
  5
313E
  8
0
  6
CONTINUOUS
 62
     7
 10
1417.572127748738
 20
361.24130065555568
 30
0.0
 11
1417.572127748738
 21
355.74127013755549
 31
0.0
  0
LINE
  5
313F
  8
0
  6
CONTINUOUS
 62
     7
 10
1412.5221498187379
 20
361.24130065555568
 30
0.0
 11
1431.6221498187381
 21
361.24130065555568
 31
0.0
  0
LINE
  5
3140
  8
0
  6
CONTINUOUS
 62
     7
 10
1417.572119300738
 20
461.24130065555647
 30
0.0
 11
1417.572119300738
 21
466.7411785855569
 31
0.0
  0
LINE
  5
3141
  8
0
  6
CONTINUOUS
 62
     7
 10
1412.5221498187379
 20
461.24130065555647
 30
0.0
 11
1412.5221498187379
 21
361.24130065555568
 31
0.0
  0
LINE
  5
3143
  8
0
  6
CONTINUOUS
 62
     7
 10
1431.6221498187381
 20
461.24130065555647
 30
0.0
 11
1431.6221498187381
 21
361.24130065555568
 31
0.0
  0
LINE
  5
315B
  8
CENTER
  6
CENTER
 62
     1
 10
1392.0721498187379
 20
481.3757305875576
 30
0.0
 11
1392.0721498187379
 21
341.10687072355449
 31
0.0
  0
LINE
  5
315C
  8
0
  6
CONTINUOUS
 62
     7
 10
1396.572119300738
 20
361.24130065555568
 30
0.0
 11
1396.572119300738
 21
355.7412701375556
 31
0.0
  0
LINE
  5
315D
  8
0
  6
CONTINUOUS
 62
     7
 10
1396.572119300738
 20
461.24130065555647
 30
0.0
 11
1396.572119300738
 21
466.7411785855569
 31
0.0
  0
LINE
  5
315E
  8
0
  6
CONTINUOUS
 62
     7
 10
1387.572119300738
 20
466.7411785855569
 30
0.0
 11
1396.572119300738
 21
466.7411785855569
 31
0.0
  0
LINE
  5
315F
  8
0
  6
CONTINUOUS
 62
     7
 10
1387.5721277487401
 20
355.74127013755549
 30
0.0
 11
1396.572119300738
 21
355.7412701375556
 31
0.0
  0
LINE
  5
3160
  8
0
  6
CONTINUOUS
 62
     7
 10
1382.5221498187379
 20
461.24130065555647
 30
0.0
 11
1401.6221498187381
 21
461.24130065555647
 31
0.0
  0
LINE
  5
3161
  8
0
  6
CONTINUOUS
 62
     7
 10
1387.5721277487401
 20
361.24130065555568
 30
0.0
 11
1387.5721277487401
 21
355.74127013755549
 31
0.0
  0
LINE
  5
3162
  8
0
  6
CONTINUOUS
 62
     7
 10
1382.5221498187379
 20
361.24130065555568
 30
0.0
 11
1401.6221498187381
 21
361.24130065555568
 31
0.0
  0
LINE
  5
3163
  8
0
  6
CONTINUOUS
 62
     7
 10
1387.572119300738
 20
461.24130065555647
 30
0.0
 11
1387.572119300738
 21
466.7411785855569
 31
0.0
  0
LINE
  5
3164
  8
0
  6
CONTINUOUS
 62
     7
 10
1382.5221498187379
 20
461.24130065555647
 30
0.0
 11
1382.5221498187379
 21
361.24130065555568
 31
0.0
  0
LINE
  5
3165
  8
0
  6
CONTINUOUS
 62
     7
 10
1401.6221498187381
 20
461.24130065555647
 30
0.0
 11
1401.6221498187381
 21
361.24130065555568
 31
0.0
  0
LINE
  5
3166
  8
CENTER
  6
CENTER
 62
     1
 10
1362.0721498187379
 20
481.3757305875576
 30
0.0
 11
1362.0721498187379
 21
341.10687072355449
 31
0.0
  0
LINE
  5
3167
  8
0
  6
CONTINUOUS
 62
     7
 10
1366.572119300738
 20
361.24130065555568
 30
0.0
 11
1366.572119300738
 21
355.7412701375556
 31
0.0
  0
LINE
  5
3168
  8
0
  6
CONTINUOUS
 62
     7
 10
1366.572119300738
 20
461.24130065555647
 30
0.0
 11
1366.572119300738
 21
466.7411785855569
 31
0.0
  0
LINE
  5
3169
  8
0
  6
CONTINUOUS
 62
     7
 10
1357.572119300738
 20
466.7411785855569
 30
0.0
 11
1366.572119300738
 21
466.7411785855569
 31
0.0
  0
LINE
  5
316A
  8
0
  6
CONTINUOUS
 62
     7
 10
1357.5721277487401
 20
355.74127013755549
 30
0.0
 11
1366.572119300738
 21
355.7412701375556
 31
0.0
  0
LINE
  5
316B
  8
0
  6
CONTINUOUS
 62
     7
 10
1352.5221498187379
 20
461.24130065555647
 30
0.0
 11
1371.6221498187381
 21
461.24130065555647
 31
0.0
  0
LINE
  5
316C
  8
0
  6
CONTINUOUS
 62
     7
 10
1357.5721277487401
 20
361.24130065555568
 30
0.0
 11
1357.5721277487401
 21
355.74127013755549
 31
0.0
  0
LINE
  5
316D
  8
0
  6
CONTINUOUS
 62
     7
 10
1352.5221498187379
 20
361.24130065555568
 30
0.0
 11
1371.6221498187381
 21
361.24130065555568
 31
0.0
  0
LINE
  5
316E
  8
0
  6
CONTINUOUS
 62
     7
 10
1357.572119300738
 20
461.24130065555647
 30
0.0
 11
1357.572119300738
 21
466.7411785855569
 31
0.0
  0
LINE
  5
316F
  8
0
  6
CONTINUOUS
 62
     7
 10
1352.5221498187379
 20
461.24130065555647
 30
0.0
 11
1352.5221498187379
 21
361.24130065555568
 31
0.0
  0
LINE
  5
3170
  8
0
  6
CONTINUOUS
 62
     7
 10
1371.6221498187381
 20
461.24130065555647
 30
0.0
 11
1371.6221498187381
 21
361.24130065555568
 31
0.0
  0
LINE
  5
3171
  8
CENTER
  6
CENTER
 62
     1
 10
1332.0721498187379
 20
481.3757305875576
 30
0.0
 11
1332.0721498187379
 21
341.10687072355449
 31
0.0
  0
LINE
  5
3172
  8
0
  6
CONTINUOUS
 62
     7
 10
1336.572119300738
 20
361.24130065555568
 30
0.0
 11
1336.572119300738
 21
355.7412701375556
 31
0.0
  0
LINE
  5
3173
  8
0
  6
CONTINUOUS
 62
     7
 10
1336.572119300738
 20
461.24130065555647
 30
0.0
 11
1336.572119300738
 21
466.7411785855569
 31
0.0
  0
LINE
  5
3174
  8
0
  6
CONTINUOUS
 62
     7
 10
1327.572119300738
 20
466.7411785855569
 30
0.0
 11
1336.572119300738
 21
466.7411785855569
 31
0.0
  0
LINE
  5
3175
  8
0
  6
CONTINUOUS
 62
     7
 10
1327.572127748738
 20
355.74127013755549
 30
0.0
 11
1336.572119300738
 21
355.7412701375556
 31
0.0
  0
LINE
  5
3176
  8
0
  6
CONTINUOUS
 62
     7
 10
1322.5221498187379
 20
461.24130065555647
 30
0.0
 11
1341.6221498187381
 21
461.24130065555647
 31
0.0
  0
LINE
  5
3177
  8
0
  6
CONTINUOUS
 62
     7
 10
1327.572127748738
 20
361.24130065555568
 30
0.0
 11
1327.572127748738
 21
355.74127013755549
 31
0.0
  0
LINE
  5
3178
  8
0
  6
CONTINUOUS
 62
     7
 10
1322.5221498187379
 20
361.24130065555568
 30
0.0
 11
1341.6221498187381
 21
361.24130065555568
 31
0.0
  0
LINE
  5
3179
  8
0
  6
CONTINUOUS
 62
     7
 10
1327.572119300738
 20
461.24130065555647
 30
0.0
 11
1327.572119300738
 21
466.7411785855569
 31
0.0
  0
LINE
  5
317A
  8
0
  6
CONTINUOUS
 62
     7
 10
1322.5221498187379
 20
461.24130065555647
 30
0.0
 11
1322.5221498187379
 21
361.24130065555568
 31
0.0
  0
LINE
  5
317B
  8
0
  6
CONTINUOUS
 62
     7
 10
1341.6221498187381
 20
461.24130065555647
 30
0.0
 11
1341.6221498187381
 21
361.24130065555568
 31
0.0
  0
LINE
  5
317C
  8
CENTER
  6
CENTER
 62
     1
 10
1302.0721498187379
 20
481.3757305875576
 30
0.0
 11
1302.0721498187379
 21
341.10687072355449
 31
0.0
  0
LINE
  5
317D
  8
0
  6
CONTINUOUS
 62
     7
 10
1306.572119300738
 20
361.24130065555568
 30
0.0
 11
1306.572119300738
 21
355.7412701375556
 31
0.0
  0
LINE
  5
317E
  8
0
  6
CONTINUOUS
 62
     7
 10
1306.572119300738
 20
461.24130065555647
 30
0.0
 11
1306.572119300738
 21
466.7411785855569
 31
0.0
  0
LINE
  5
317F
  8
0
  6
CONTINUOUS
 62
     7
 10
1297.572119300738
 20
466.7411785855569
 30
0.0
 11
1306.572119300738
 21
466.7411785855569
 31
0.0
  0
LINE
  5
3180
  8
0
  6
CONTINUOUS
 62
     7
 10
1297.5721277487389
 20
355.74127013755549
 30
0.0
 11
1306.572119300738
 21
355.7412701375556
 31
0.0
  0
LINE
  5
3181
  8
0
  6
CONTINUOUS
 62
     7
 10
1292.5221498187379
 20
461.24130065555647
 30
0.0
 11
1311.6221498187381
 21
461.24130065555647
 31
0.0
  0
LINE
  5
3182
  8
0
  6
CONTINUOUS
 62
     7
 10
1297.5721277487389
 20
361.24130065555568
 30
0.0
 11
1297.5721277487389
 21
355.74127013755549
 31
0.0
  0
LINE
  5
3183
  8
0
  6
CONTINUOUS
 62
     7
 10
1292.5221498187379
 20
361.24130065555568
 30
0.0
 11
1311.6221498187381
 21
361.24130065555568
 31
0.0
  0
LINE
  5
3184
  8
0
  6
CONTINUOUS
 62
     7
 10
1297.572119300738
 20
461.24130065555647
 30
0.0
 11
1297.572119300738
 21
466.7411785855569
 31
0.0
  0
LINE
  5
3185
  8
0
  6
CONTINUOUS
 62
     7
 10
1292.5221498187379
 20
461.24130065555647
 30
0.0
 11
1292.5221498187379
 21
361.24130065555568
 31
0.0
  0
LINE
  5
3186
  8
0
  6
CONTINUOUS
 62
     7
 10
1311.6221498187381
 20
461.24130065555647
 30
0.0
 11
1311.6221498187381
 21
361.24130065555568
 31
0.0
  0
LINE
  5
3187
  8
CENTER
  6
CENTER
 62
     1
 10
1272.0721498187379
 20
481.3757305875576
 30
0.0
 11
1272.0721498187379
 21
341.10687072355449
 31
0.0
  0
LINE
  5
3188
  8
0
  6
CONTINUOUS
 62
     7
 10
1276.572119300738
 20
361.24130065555568
 30
0.0
 11
1276.572119300738
 21
355.7412701375556
 31
0.0
  0
LINE
  5
3189
  8
0
  6
CONTINUOUS
 62
     7
 10
1276.572119300738
 20
461.24130065555647
 30
0.0
 11
1276.572119300738
 21
466.7411785855569
 31
0.0
  0
LINE
  5
318A
  8
0
  6
CONTINUOUS
 62
     7
 10
1267.572119300738
 20
466.7411785855569
 30
0.0
 11
1276.572119300738
 21
466.7411785855569
 31
0.0
  0
LINE
  5
318B
  8
0
  6
CONTINUOUS
 62
     7
 10
1267.5721277487389
 20
355.74127013755549
 30
0.0
 11
1276.572119300738
 21
355.7412701375556
 31
0.0
  0
LINE
  5
318C
  8
0
  6
CONTINUOUS
 62
     7
 10
1262.5221498187379
 20
461.24130065555647
 30
0.0
 11
1281.6221498187381
 21
461.24130065555647
 31
0.0
  0
LINE
  5
318D
  8
0
  6
CONTINUOUS
 62
     7
 10
1267.5721277487389
 20
361.24130065555568
 30
0.0
 11
1267.5721277487389
 21
355.74127013755549
 31
0.0
  0
LINE
  5
318E
  8
0
  6
CONTINUOUS
 62
     7
 10
1262.5221498187379
 20
361.24130065555568
 30
0.0
 11
1281.6221498187381
 21
361.24130065555568
 31
0.0
  0
LINE
  5
318F
  8
0
  6
CONTINUOUS
 62
     7
 10
1267.572119300738
 20
461.24130065555647
 30
0.0
 11
1267.572119300738
 21
466.7411785855569
 31
0.0
  0
LINE
  5
3190
  8
0
  6
CONTINUOUS
 62
     7
 10
1262.5221498187379
 20
461.24130065555647
 30
0.0
 11
1262.5221498187379
 21
361.24130065555568
 31
0.0
  0
LINE
  5
3191
  8
0
  6
CONTINUOUS
 62
     7
 10
1281.6221498187381
 20
461.24130065555647
 30
0.0
 11
1281.6221498187381
 21
361.24130065555568
 31
0.0
  0
LINE
  5
364A
  8
CENTER
  6
CENTER
 62
     1
 10
1592.253749352313
 20
191.95546165201441
 30
0.0
 11
1592.253749352313
 21
182.89106298461471
 31
0.0
  0
LINE
  5
364B
  8
CENTER
  6
CENTER
 62
     1
 10
1742.253749352313
 20
191.95546165201441
 30
0.0
 11
1742.253749352313
 21
182.89106298461471
 31
0.0
  0
VIEWPORT
  5
B50
 67
     1
  8
0
  6
CONTINUOUS
 62
     7
 10
7.112290433737023
 20
2.981295730846123
 30
0.0
 40
4.9148114312196434
 41
3.282094413390745
 68
     1
 69
     1
1001
ACAD
1000
MVIEW
1002
{
1070
    16
1010
0.0
1020
0.0
1030
0.0
1010
0.0
1020
0.0
1030
1.0
1040
0.0
1040
3.282094413390745
1040
7.112290433737023
1040
2.981295730846123
1040
50.0
1040
0.0
1040
0.0
1070
     0
1070
   100
1070
     1
1070
     1
1070
     0
1070
     0
1070
     0
1070
     0
1040
0.0
1040
0.0
1040
0.0
1040
10.0
1040
10.0
1040
10.0
1040
10.0
1070
     0
1002
{
1002
}
1002
}
  0
VIEWPORT
  5
B52
 67
     1
  8
0
  6
CONTINUOUS
 62
     7
 10
5.613749965908017
 20
4.2288572829196642
 30
0.0
 40
8.9819999454528343
 41
5.9491526893688
 68
     2
 69
     2
1001
ACAD
1000
MVIEW
1002
{
1070
    16
1010
148.5
1020
105.0
1030
0.0
1010
0.0
1020
0.0
1030
442.63470846773748
1040
0.0
1040
389.41889882681869
1040
1349.701048736669
1040
218.0015450911508
1040
50.0
1040
0.0
1040
0.0
1070
     0
1070
   100
1070
     1
1070
     1
1070
     0
1070
     0
1070
     0
1070
     0
1040
0.0
1040
0.0
1040
0.0
1040
10.0
1040
10.0
1040
10.0
1040
10.0
1070
     0
1002
{
1002
}
1002
}
  0
ENDSEC
  0
EOF
