  0
SECTION
  2
HEADER
  9
$ACADVER
  1
AC1009
  9
$INSBASE
 10
0.0
 20
0.0
 30
0.0
  9
$EXTMIN
 10
-92.270118536910786
 20
-55.912477123164649
 30
-0.0000000000000058
  9
$EXTMAX
 10
162.03590736746989
 20
350.0296053927741
 30
0.0000000000000104
  9
$LIMMIN
 10
0.0
 20
0.0
  9
$LIMMAX
 10
420.0
 20
297.0
  9
$ORTHOMODE
 70
     0
  9
$REGENMODE
 70
     1
  9
$FILLMODE
 70
     1
  9
$QTEXTMODE
 70
     0
  9
$MIRRTEXT
 70
     0
  9
$DRAGMODE
 70
     2
  9
$LTSCALE
 40
1.0
  9
$OSMODE
 70
   319
  9
$ATTMODE
 70
     1
  9
$TEXTSIZE
 40
3.0
  9
$TRACEWID
 40
1.0
  9
$TEXTSTYLE
  7
STANDARD
  9
$CLAYER
  8
0
  9
$CELTYPE
  6
CONTINUOUS
  9
$CECOLOR
 62
     7
  9
$DIMSCALE
 40
1.0
  9
$DIMASZ
 40
2.5
  9
$DIMEXO
 40
0.625
  9
$DIMDLI
 40
3.75
  9
$DIMRND
 40
0.0
  9
$DIMDLE
 40
0.0
  9
$DIMEXE
 40
1.25
  9
$DIMTP
 40
0.0
  9
$DIMTM
 40
0.0
  9
$DIMTXT
 40
2.5
  9
$DIMCEN
 40
2.5
  9
$DIMTSZ
 40
0.0
  9
$DIMTOL
 70
     0
  9
$DIMLIM
 70
     0
  9
$DIMTIH
 70
     0
  9
$DIMTOH
 70
     0
  9
$DIMSE1
 70
     0
  9
$DIMSE2
 70
     0
  9
$DIMTAD
 70
     1
  9
$DIMZIN
 70
     8
  9
$DIMBLK
  1
OPEN30
  9
$DIMASO
 70
     1
  9
$DIMSHO
 70
     1
  9
$DIMPOST
  1

  9
$DIMAPOST
  1

  9
$DIMALT
 70
     0
  9
$DIMALTD
 70
     3
  9
$DIMALTF
 40
0.03937007874016
  9
$DIMLFAC
 40
1.0
  9
$DIMTOFL
 70
     1
  9
$DIMTVP
 40
0.0
  9
$DIMTIX
 70
     0
  9
$DIMSOXD
 70
     0
  9
$DIMSAH
 70
     0
  9
$DIMBLK1
  1

  9
$DIMBLK2
  1

  9
$DIMSTYLE
  2
MISUMI
  9
$DIMCLRD
 70
   137
  9
$DIMCLRE
 70
   137
  9
$DIMCLRT
 70
   137
  9
$DIMTFAC
 40
1.0
  9
$DIMGAP
 40
0.625
  9
$LUNITS
 70
     2
  9
$LUPREC
 70
     2
  9
$SKETCHINC
 40
1.0
  9
$FILLETRAD
 40
0.0
  9
$AUNITS
 70
     0
  9
$AUPREC
 70
     0
  9
$MENU
  1
.
  9
$ELEVATION
 40
0.0
  9
$PELEVATION
 40
0.0
  9
$THICKNESS
 40
0.0
  9
$LIMCHECK
 70
     0
  9
$BLIPMODE
 70
     0
  9
$CHAMFERA
 40
0.5
  9
$CHAMFERB
 40
0.5
  9
$SKPOLY
 70
     0
  9
$TDCREATE
 40
2455135.5720697111
  9
$TDUPDATE
 40
2455691.7085537962
  9
$TDINDWG
 40
0.4564735301
  9
$TDUSRTIMER
 40
0.4564733449
  9
$USRTIMER
 70
     1
  9
$ANGBASE
 50
0.0
  9
$ANGDIR
 70
     0
  9
$PDMODE
 70
    35
  9
$PDSIZE
 40
0.0
  9
$PLINEWID
 40
0.0
  9
$COORDS
 70
     2
  9
$SPLFRAME
 70
     0
  9
$SPLINETYPE
 70
     6
  9
$SPLINESEGS
 70
     8
  9
$ATTDIA
 70
     0
  9
$ATTREQ
 70
     1
  9
$HANDLING
 70
     1
  9
$HANDSEED
  5
2A4F
  9
$SURFTAB1
 70
     6
  9
$SURFTAB2
 70
     6
  9
$SURFTYPE
 70
     6
  9
$SURFU
 70
     6
  9
$SURFV
 70
     6
  9
$UCSNAME
  2

  9
$UCSORG
 10
0.0
 20
0.0
 30
0.0
  9
$UCSXDIR
 10
1.0
 20
0.0
 30
0.0
  9
$UCSYDIR
 10
0.0
 20
1.0
 30
0.0
  9
$PUCSNAME
  2

  9
$PUCSORG
 10
0.0
 20
0.0
 30
0.0
  9
$PUCSXDIR
 10
1.0
 20
0.0
 30
0.0
  9
$PUCSYDIR
 10
0.0
 20
1.0
 30
0.0
  9
$USERI1
 70
     0
  9
$USERI2
 70
     0
  9
$USERI3
 70
     0
  9
$USERI4
 70
     0
  9
$USERI5
 70
     0
  9
$USERR1
 40
0.0
  9
$USERR2
 40
0.0
  9
$USERR3
 40
0.0
  9
$USERR4
 40
0.0
  9
$USERR5
 40
0.0
  9
$WORLDVIEW
 70
     1
  9
$SHADEDGE
 70
     3
  9
$SHADEDIF
 70
    70
  9
$TILEMODE
 70
     1
  9
$MAXACTVP
 70
    64
  9
$PLIMCHECK
 70
     0
  9
$PEXTMIN
 10
0.0
 20
0.0
 30
0.0
  9
$PEXTMAX
 10
0.0
 20
0.0
 30
0.0
  9
$PLIMMIN
 10
0.0
 20
0.0
  9
$PLIMMAX
 10
12.0
 20
9.0
  9
$UNITMODE
 70
     0
  9
$VISRETAIN
 70
     1
  9
$PLINEGEN
 70
     0
  9
$PSLTSCALE
 70
     1
  0
ENDSEC
  0
SECTION
  2
TABLES
  0
TABLE
  2
VPORT
 70
     1
  0
VPORT
  2
*ACTIVE
 70
     0
 10
0.0
 20
0.0
 11
1.0
 21
1.0
 12
34.882894415279573
 22
147.0585641348047
 13
0.0
 23
0.0
 14
10.0
 24
10.0
 15
10.0
 25
10.0
 16
0.0
 26
0.0
 36
1.0
 17
0.0
 27
0.0
 37
0.0
 40
409.18961917606617
 41
1.3444592790387171
 42
50.0
 43
0.0
 44
0.0
 50
0.0
 51
0.0
 71
     0
 72
  1000
 73
     1
 74
     3
 75
     0
 76
     1
 77
     0
 78
     0
  0
ENDTAB
  0
TABLE
  2
LTYPE
 70
     4
  0
LTYPE
  2
CONTINUOUS
 70
     0
  3
Solid line
 72
    65
 73
     0
 40
0.0
  0
LTYPE
  2
CENTER
 70
     0
  3
Center ____ _ ____ _ ____ _ ____ _ ____ _ ____
 72
    65
 73
     4
 40
50.799999999999997
 49
31.75
 49
-6.3499999999999988
 49
6.3499999999999988
 49
-6.3499999999999988
  0
LTYPE
  2
DASHED
 70
     0
  3
Dashed __ __ __ __ __ __ __ __ __ __ __ __ __ _
 72
    65
 73
     2
 40
19.050000000000001
 49
12.699999999999999
 49
-6.3499999999999988
  0
LTYPE
  2
PHANTOM
 70
     0
  3
Phantom ______  __  __  ______  __  __  ______
 72
    65
 73
     6
 40
63.5
 49
31.75
 49
-6.3499999999999988
 49
6.3499999999999988
 49
-6.3499999999999988
 49
6.3499999999999988
 49
-6.3499999999999988
  0
ENDTAB
  0
TABLE
  2
LAYER
 70
     3
  0
LAYER
  2
0
 70
     0
 62
     7
  6
CONTINUOUS
  0
LAYER
  2
CENTER
 70
     0
 62
     1
  6
CENTER
  0
LAYER
  2
DEFPOINTS
 70
     0
 62
     7
  6
CONTINUOUS
  0
ENDTAB
  0
TABLE
  2
STYLE
 70
     1
  0
STYLE
  2
STANDARD
 70
     0
 40
3.0
 41
1.0
 50
0.0
 71
     0
 42
3.0
  3
txt.shx
  4
bigfont.shx
  0
ENDTAB
  0
TABLE
  2
VIEW
 70
     0
  0
ENDTAB
  0
TABLE
  2
UCS
 70
     0
  0
ENDTAB
  0
TABLE
  2
APPID
 70
     4
  0
APPID
  2
ACAD
 70
     0
  0
APPID
  2
ACAD_EXEMPT_FROM_CAD_STANDARDS
 70
     0
  0
APPID
  2
ACAD_DSTYLE_DIMRADIAL_EXTENSION
 70
     0
  0
APPID
  2
ACAD_MLEADERVER
 70
     0
  0
ENDTAB
  0
TABLE
  2
DIMSTYLE
 70
     1
  0
DIMSTYLE
  2
MISUMI
 70
     0
  3

  4

  5
OPEN30
  6

  7

 40
1.0
 41
2.5
 42
0.625
 43
3.75
 44
1.25
 45
0.0
 46
0.0
 47
0.0
 48
0.0
140
2.5
141
2.5
142
0.0
143
0.03937007874016
144
1.0
145
0.0
146
1.0
147
0.625
 71
     0
 72
     0
 73
     0
 74
     0
 75
     0
 76
     0
 77
     1
 78
     8
170
     0
171
     3
172
     1
173
     0
174
     0
175
     0
176
   137
177
   137
178
   137
  0
ENDTAB
  0
ENDSEC
  0
SECTION
  2
BLOCKS
  0
BLOCK
  8
0
  2
$MODEL_SPACE
 70
     0
 10
0.0
 20
0.0
 30
0.0
  3
$MODEL_SPACE
  1

  0
ENDBLK
  5
21
  8
0
  0
BLOCK
 67
     1
  8
0
  2
$PAPER_SPACE
 70
     0
 10
0.0
 20
0.0
 30
0.0
  3
$PAPER_SPACE
  1

  0
ENDBLK
  5
53
 67
     1
  8
0
  0
BLOCK
  8
0
 62
     7
  2
_OPEN30
 70
     0
 10
0.0
 20
0.0
 30
0.0
  3
_OPEN30
  1

  0
LINE
  5
D7
  8
0
  6
BYBLOCK
 62
     0
 10
-1.0
 20
0.26794919
 30
0.0
 11
0.0
 21
0.0
 31
0.0
  0
LINE
  5
D8
  8
0
  6
BYBLOCK
 62
     0
 10
0.0
 20
0.0
 30
0.0
 11
-1.0
 21
-0.26794919
 31
0.0
  0
LINE
  5
D9
  8
0
  6
BYBLOCK
 62
     0
 10
0.0
 20
0.0
 30
0.0
 11
-1.0
 21
0.0
 31
0.0
  0
ENDBLK
  5
DB
  8
0
 62
     7
  0
BLOCK
  8
0
 62
     7
  2
*U31
 70
     1
 10
0.0
 20
0.0
 30
0.0
  3
*U31
  1

  0
TEXT
  5
2A48
  8
0
  6
CONTINUOUS
 62
     7
 10
-92.244540016899464
 20
-51.06473594576039
 30
0.0
 40
3.0
  1
ROCOP20-10-113-25
  0
ENDBLK
  5
2A4A
  8
0
 62
     7
  0
BLOCK
  8
0
 62
     7
  2
*U32
 70
     1
 10
0.0
 20
0.0
 30
0.0
  3
*U32
  1

  0
TEXT
  5
2A4C
  8
0
  6
CONTINUOUS
 62
     7
 10
-92.244540016899464
 20
-55.891782992655067
 30
0.0
 40
3.0
  1
ROCOP20
  0
ENDBLK
  5
2A4E
  8
0
 62
     7
  0
ENDSEC
  0
SECTION
  2
ENTITIES
  0
INSERT
  5
C9D
  8
0
  6
CONTINUOUS
 62
     7
  2
*U31
 10
0.0
 20
0.0
 30
0.0
  0
INSERT
  5
C9E
  8
0
  6
CONTINUOUS
 62
     7
  2
*U32
 10
0.0
 20
0.0
 30
0.0
  0
LINE
  5
D1F
  8
CENTER
  6
CENTER
 62
     1
 10
-16.999999999999989
 20
0.0000000000000042
 30
0.0
 11
162.0
 21
0.0
 31
0.0
  0
LINE
  5
D20
  8
0
  6
DASHED
 62
     3
 10
21.699999999999999
 20
-8.5
 30
0.0
 11
123.3
 21
-8.5
 31
0.0
  0
LINE
  5
D21
  8
0
  6
DASHED
 62
     3
 10
21.699999999999999
 20
8.5
 30
0.0
 11
123.3
 21
8.4999999999999822
 31
0.0
  0
LINE
  5
D22
  8
0
  6
CONTINUOUS
 62
     7
 10
20.0
 20
10.0
 30
0.0
 11
125.0
 21
10.0
 31
0.0
  0
LINE
  5
D23
  8
0
  6
CONTINUOUS
 62
     7
 10
20.0
 20
-10.0
 30
0.0
 11
125.0
 21
-10.0
 31
0.0
  0
LINE
  5
D28
  8
0
  6
CONTINUOUS
 62
     7
 10
19.0
 20
-9.0
 30
0.0
 11
19.0
 21
9.0
 31
0.0
  0
ARC
  5
D2D
  8
0
  6
CONTINUOUS
 62
     7
 10
20.0
 20
-9.0
 30
0.0
 40
1.0
 50
180.0
 51
270.0
  0
LINE
  5
D2F
  8
0
  6
DASHED
 62
     3
 10
21.699999999999999
 20
-10.0
 30
0.0
 11
21.699999999999999
 21
-8.5
 31
0.0
  0
LINE
  5
D37
  8
0
  6
CONTINUOUS
 62
     7
 10
19.0
 20
-3.719999999999998
 30
0.0
 11
16.0
 21
-3.719999999999998
 31
0.0
  0
LINE
  5
D38
  8
0
  6
CONTINUOUS
 62
     7
 10
19.0
 20
3.7199999999999909
 30
0.0
 11
16.0
 21
3.7199999999999909
 31
0.0
  0
LINE
  5
D39
  8
0
  6
CONTINUOUS
 62
     7
 10
16.0
 20
3.7199999999999909
 30
0.0
 11
16.0
 21
-3.719999999999998
 31
0.0
  0
ARC
  5
D42
  8
0
  6
CONTINUOUS
 62
     7
 10
20.0
 20
9.0
 30
0.0
 40
1.0
 50
90.0
 51
180.0
  0
LINE
  5
D44
  8
0
  6
DASHED
 62
     3
 10
21.699999999999999
 20
10.0
 30
0.0
 11
21.699999999999999
 21
8.5
 31
0.0
  0
LINE
  5
D4C
  8
0
  6
CONTINUOUS
 62
     7
 10
129.0
 20
4.7499999999999911
 30
0.0
 11
129.0
 21
-4.7499999999999991
 31
0.0
  0
LINE
  5
D4E
  8
0
  6
CONTINUOUS
 62
     7
 10
129.0
 20
4.7499999999999911
 30
0.0
 11
126.0
 21
4.7499999999999911
 31
0.0
  0
LINE
  5
D4F
  8
0
  6
CONTINUOUS
 62
     7
 10
129.0
 20
-4.7499999999999991
 30
0.0
 11
126.0
 21
-4.7499999999999991
 31
0.0
  0
LINE
  5
DAD
  8
0
  6
CONTINUOUS
 62
     7
 10
-15.0
 20
-51.999999999999957
 30
0.0
 11
15.0
 21
-52.0
 31
0.0
  0
LINE
  5
DAE
  8
0
  6
CONTINUOUS
 62
     7
 10
-15.0
 20
-48.999999999999957
 30
0.0
 11
12.0
 21
-49.0
 31
0.0
  0
LINE
  5
DAF
  8
0
  6
CONTINUOUS
 62
     7
 10
-14.999999999999989
 20
5.0
 30
0.0
 11
12.0
 21
4.9999999999999991
 31
0.0
  0
LINE
  5
DB0
  8
0
  6
CONTINUOUS
 62
     7
 10
15.0
 20
7.9999999999999991
 30
0.0
 11
15.0
 21
-52.0
 31
0.0
  0
LINE
  5
DB3
  8
0
  6
CONTINUOUS
 62
     7
 10
-15.0
 20
-48.999999999999957
 30
0.0
 11
-15.0
 21
-51.999999999999957
 31
0.0
  0
LINE
  5
DB5
  8
0
  6
CONTINUOUS
 62
     7
 10
160.0
 20
5.0
 30
0.0
 11
133.0
 21
4.9999999999999991
 31
0.0
  0
LINE
  5
DB6
  8
0
  6
CONTINUOUS
 62
     7
 10
160.0
 20
-52.0
 30
0.0
 11
130.0
 21
-52.0
 31
0.0
  0
LINE
  5
DB7
  8
0
  6
CONTINUOUS
 62
     7
 10
160.0
 20
-49.0
 30
0.0
 11
133.0
 21
-49.0
 31
0.0
  0
LINE
  5
DB8
  8
0
  6
CONTINUOUS
 62
     7
 10
130.0
 20
7.9999999999999991
 30
0.0
 11
130.0
 21
-52.0
 31
0.0
  0
LINE
  5
DB9
  8
0
  6
CONTINUOUS
 62
     7
 10
133.0
 20
4.9999999999999991
 30
0.0
 11
133.0
 21
-49.0
 31
0.0
  0
LINE
  5
DBB
  8
0
  6
CONTINUOUS
 62
     7
 10
160.0
 20
-49.0
 30
0.0
 11
160.0
 21
-52.0
 31
0.0
  0
LINE
  5
DBC
  8
0
  6
CONTINUOUS
 62
     7
 10
15.0
 20
7.9999999999999991
 30
0.0
 11
-15.0
 21
7.9999999999999991
 31
0.0
  0
LINE
  5
DBD
  8
0
  6
CONTINUOUS
 62
     7
 10
-15.0
 20
7.9999999999999991
 30
0.0
 11
-14.999999999999989
 21
5.0
 31
0.0
  0
LINE
  5
DBE
  8
0
  6
CONTINUOUS
 62
     7
 10
130.0
 20
7.9999999999999991
 30
0.0
 11
160.0
 21
7.9999999999999991
 31
0.0
  0
LINE
  5
DBF
  8
0
  6
CONTINUOUS
 62
     7
 10
160.0
 20
7.9999999999999991
 30
0.0
 11
160.0
 21
5.0
 31
0.0
  0
LINE
  5
E0A
  8
0
  6
CONTINUOUS
 62
     7
 10
0.0
 20
2.5
 30
0.0
 11
0.0
 21
-2.5
 31
0.0
  0
CIRCLE
  5
E60
  8
0
  6
CONTINUOUS
 62
     7
 10
6.0
 20
0.0000000000000115
 30
0.0
 40
1.25
  0
LINE
  5
E61
  8
0
  6
CONTINUOUS
 62
     7
 10
145.0
 20
2.5
 30
0.0
 11
145.0
 21
-2.5
 31
0.0
  0
CIRCLE
  5
E6C
  8
0
  6
CONTINUOUS
 62
     7
 10
139.0
 20
0.0000000000000123
 30
0.0
 40
1.25
  0
LINE
  5
E6D
  8
CENTER
  6
CENTER
 62
     1
 10
139.0
 20
-2.9499999999999882
 30
0.0
 11
139.0
 21
2.9500000000000108
 31
0.0
  0
LINE
  5
E6F
  8
CENTER
  6
CENTER
 62
     1
 10
6.0
 20
-2.94999999999999
 30
0.0
 11
6.0
 21
2.9500000000000099
 31
0.0
  0
LINE
  5
E72
  8
0
  6
DASHED
 62
     3
 10
149.75
 20
-49.000000000000007
 30
0.0
 11
149.75
 21
-52.0
 31
0.0
  0
LINE
  5
E73
  8
0
  6
DASHED
 62
     3
 10
140.25
 20
-49.000000000000007
 30
0.0
 11
140.25
 21
-52.0
 31
0.0
  0
LINE
  5
E74
  8
0
  6
DASHED
 62
     3
 10
4.75
 20
-48.999999999999993
 30
0.0
 11
4.75
 21
-51.999999999999993
 31
0.0
  0
LINE
  5
E75
  8
0
  6
DASHED
 62
     3
 10
-4.75
 20
-48.999999999999979
 30
0.0
 11
-4.7500000000000027
 21
-51.999999999999979
 31
0.0
  0
LINE
  5
E99
  8
0
  6
CONTINUOUS
 62
     7
 10
12.0
 20
4.9999999999999991
 30
0.0
 11
12.0
 21
-49.0
 31
0.0
  0
LINE
  5
EA0
  8
0
  6
CONTINUOUS
 62
     7
 10
144.5
 20
3.0
 30
0.0
 11
133.0
 21
3.0
 31
0.0
  0
LINE
  5
EA1
  8
0
  6
CONTINUOUS
 62
     7
 10
144.5
 20
-3.0
 30
0.0
 11
133.0
 21
-3.0
 31
0.0
  0
LINE
  5
EAD
  8
0
  6
CONTINUOUS
 62
     7
 10
130.0
 20
-3.0000000000000022
 30
0.0
 11
129.0
 21
-3.0000000000000031
 31
0.0
  0
LINE
  5
12F2
  8
0
  6
CONTINUOUS
 62
     7
 10
0.0
 20
-2.5
 30
0.0
 11
0.5
 21
-3.0
 31
0.0
  0
LINE
  5
12F3
  8
0
  6
CONTINUOUS
 62
     7
 10
0.0
 20
2.5
 30
0.0
 11
0.5
 21
3.0
 31
0.0
  0
LINE
  5
12F4
  8
0
  6
CONTINUOUS
 62
     7
 10
145.0
 20
-2.5
 30
0.0
 11
144.5
 21
-3.0
 31
0.0
  0
LINE
  5
12F5
  8
0
  6
CONTINUOUS
 62
     7
 10
144.5
 20
3.0
 30
0.0
 11
145.0
 21
2.5
 31
0.0
  0
LINE
  5
12F6
  8
0
  6
CONTINUOUS
 62
     7
 10
12.0
 20
3.0
 30
0.0
 11
0.5
 21
3.0
 31
0.0
  0
LINE
  5
12F7
  8
0
  6
CONTINUOUS
 62
     7
 10
12.0
 20
-3.0
 30
0.0
 11
0.5
 21
-3.0
 31
0.0
  0
LINE
  5
12F8
  8
0
  6
DASHED
 62
     3
 10
12.0
 20
3.0
 30
0.0
 11
15.0
 21
3.0
 31
0.0
  0
LINE
  5
12F9
  8
0
  6
DASHED
 62
     3
 10
15.0
 20
-3.0
 30
0.0
 11
12.0
 21
-3.0
 31
0.0
  0
LINE
  5
1325
  8
0
  6
CONTINUOUS
 62
     7
 10
130.0
 20
3.0
 30
0.0
 11
129.0
 21
3.0
 31
0.0
  0
LINE
  5
1326
  8
0
  6
DASHED
 62
     3
 10
130.0
 20
3.0
 30
0.0
 11
133.0
 21
3.0
 31
0.0
  0
LINE
  5
1327
  8
0
  6
DASHED
 62
     3
 10
133.0
 20
-3.0
 30
0.0
 11
130.0
 21
-3.0
 31
0.0
  0
LINE
  5
133B
  8
0
  6
CONTINUOUS
 62
     7
 10
126.0
 20
9.0
 30
0.0
 11
126.0
 21
-9.0
 31
0.0
  0
ARC
  5
133C
  8
0
  6
CONTINUOUS
 62
     7
 10
125.0
 20
-9.0
 30
0.0
 40
1.0
 50
270.0
 51
0.000000000000007
  0
LINE
  5
133E
  8
0
  6
DASHED
 62
     3
 10
123.3
 20
-10.0
 30
0.0
 11
123.3
 21
-8.5
 31
0.0
  0
ARC
  5
134B
  8
0
  6
CONTINUOUS
 62
     7
 10
125.0
 20
9.0
 30
0.0
 40
1.0
 50
0.000000000000007
 51
90.0
  0
LINE
  5
134D
  8
0
  6
DASHED
 62
     3
 10
123.3
 20
10.0
 30
0.0
 11
123.3
 21
8.5
 31
0.0
  0
LINE
  5
15BA
  8
0
  6
CONTINUOUS
 62
     7
 10
15.0
 20
100.0
 30
0.0
 11
15.00000000000006
 21
350.0
 31
0.0
  0
LINE
  5
15BB
  8
0
  6
CONTINUOUS
 62
     7
 10
-15.0
 20
100.0
 30
0.0
 11
-14.99999999999994
 21
350.0
 31
0.0
  0
LINE
  5
15BC
  8
0
  6
CONTINUOUS
 62
     7
 10
130.0
 20
99.999999999999844
 30
0.0
 11
130.0
 21
349.99999999999977
 31
0.0
  0
LINE
  5
15BD
  8
0
  6
CONTINUOUS
 62
     7
 10
160.0
 20
99.999999999999844
 30
0.0
 11
160.0
 21
349.99999999999977
 31
0.0
  0
LINE
  5
15BE
  8
0
  6
CONTINUOUS
 62
     7
 10
160.0
 20
99.999999999999844
 30
0.0
 11
130.0
 21
99.999999999999844
 31
0.0
  0
LINE
  5
15BF
  8
0
  6
CONTINUOUS
 62
     7
 10
15.0
 20
100.0
 30
0.0
 11
-15.0
 21
100.0
 31
0.0
  0
LINE
  5
15C0
  8
0
  6
CONTINUOUS
 62
     7
 10
160.0
 20
349.99999999999977
 30
0.0
 11
130.0
 21
349.99999999999977
 31
0.0
  0
LINE
  5
15C1
  8
0
  6
CONTINUOUS
 62
     7
 10
15.00000000000006
 20
350.0
 30
0.0
 11
-14.99999999999994
 21
350.0
 31
0.0
  0
LINE
  5
1678
  8
CENTER
  6
CENTER
 62
     1
 10
-5.9499999999999877
 20
112.5
 30
0.0
 11
5.9500000000000446
 21
112.5
 31
0.0
  0
LINE
  5
1679
  8
CENTER
  6
CENTER
 62
     1
 10
0.0
 20
101.5
 30
0.0
 11
0.0
 21
123.5
 31
0.0
  0
LINE
  5
167A
  8
0
  6
CONTINUOUS
 62
     7
 10
-4.75
 20
107.25
 30
0.0
 11
-4.75
 21
117.75
 31
0.0
  0
LINE
  5
167B
  8
0
  6
CONTINUOUS
 62
     7
 10
4.75
 20
107.25
 30
0.0
 11
4.75
 21
117.75
 31
0.0
  0
ARC
  5
1681
  8
0
  6
CONTINUOUS
 62
     7
 10
0.0
 20
117.75
 30
0.0
 40
4.75
 50
0.0
 51
180.0
  0
ARC
  5
1682
  8
0
  6
CONTINUOUS
 62
     7
 10
0.0
 20
107.25
 30
0.0
 40
4.75
 50
180.0
 51
0.0
  0
LINE
  5
16B9
  8
CENTER
  6
CENTER
 62
     1
 10
-5.9499999999999877
 20
212.5
 30
0.0
 11
5.9500000000000446
 21
212.5
 31
0.0
  0
LINE
  5
16BA
  8
CENTER
  6
CENTER
 62
     1
 10
0.0
 20
201.5
 30
0.0
 11
0.0
 21
223.5
 31
0.0
  0
LINE
  5
16BB
  8
0
  6
CONTINUOUS
 62
     7
 10
-4.75
 20
207.25
 30
0.0
 11
-4.75
 21
217.75
 31
0.0
  0
LINE
  5
16BC
  8
0
  6
CONTINUOUS
 62
     7
 10
4.75
 20
207.25
 30
0.0
 11
4.75
 21
217.75
 31
0.0
  0
ARC
  5
16BD
  8
0
  6
CONTINUOUS
 62
     7
 10
0.0
 20
217.75
 30
0.0
 40
4.75
 50
0.0
 51
180.0
  0
ARC
  5
16BE
  8
0
  6
CONTINUOUS
 62
     7
 10
0.0
 20
207.25
 30
0.0
 40
4.75
 50
180.0
 51
0.0
  0
LINE
  5
16BF
  8
CENTER
  6
CENTER
 62
     1
 10
-5.9499999999999877
 20
337.5
 30
0.0
 11
5.9500000000000446
 21
337.5
 31
0.0
  0
LINE
  5
16C0
  8
CENTER
  6
CENTER
 62
     1
 10
0.0
 20
348.5
 30
0.0
 11
0.0
 21
326.5
 31
0.0
  0
LINE
  5
16C1
  8
0
  6
CONTINUOUS
 62
     7
 10
-4.75
 20
342.75
 30
0.0
 11
-4.75
 21
332.25
 31
0.0
  0
LINE
  5
16C2
  8
0
  6
CONTINUOUS
 62
     7
 10
4.75
 20
342.75
 30
0.0
 11
4.75
 21
332.25
 31
0.0
  0
ARC
  5
16C3
  8
0
  6
CONTINUOUS
 62
     7
 10
0.0
 20
332.25
 30
0.0
 40
4.75
 50
180.0
 51
0.0
  0
ARC
  5
16C4
  8
0
  6
CONTINUOUS
 62
     7
 10
0.0
 20
342.75
 30
0.0
 40
4.75
 50
0.0
 51
180.0
  0
LINE
  5
16C5
  8
CENTER
  6
CENTER
 62
     1
 10
-5.9499999999999877
 20
237.5
 30
0.0
 11
5.9500000000000446
 21
237.5
 31
0.0
  0
LINE
  5
16C6
  8
CENTER
  6
CENTER
 62
     1
 10
0.0
 20
248.5
 30
0.0
 11
0.0
 21
226.5
 31
0.0
  0
LINE
  5
16C7
  8
0
  6
CONTINUOUS
 62
     7
 10
-4.75
 20
242.75
 30
0.0
 11
-4.75
 21
232.25
 31
0.0
  0
LINE
  5
16C8
  8
0
  6
CONTINUOUS
 62
     7
 10
4.75
 20
242.75
 30
0.0
 11
4.75
 21
232.25
 31
0.0
  0
ARC
  5
16C9
  8
0
  6
CONTINUOUS
 62
     7
 10
0.0
 20
232.25
 30
0.0
 40
4.75
 50
180.0
 51
0.0
  0
ARC
  5
16CA
  8
0
  6
CONTINUOUS
 62
     7
 10
0.0
 20
242.75
 30
0.0
 40
4.75
 50
0.0
 51
180.0
  0
LINE
  5
16CB
  8
CENTER
  6
CENTER
 62
     1
 10
150.94999999999999
 20
112.5
 30
0.0
 11
139.0499999999999
 21
112.5
 31
0.0
  0
LINE
  5
16CC
  8
CENTER
  6
CENTER
 62
     1
 10
145.0
 20
101.5
 30
0.0
 11
145.0
 21
123.5
 31
0.0
  0
LINE
  5
16CD
  8
0
  6
CONTINUOUS
 62
     7
 10
149.75
 20
107.25
 30
0.0
 11
149.75
 21
117.75
 31
0.0
  0
LINE
  5
16CE
  8
0
  6
CONTINUOUS
 62
     7
 10
140.25
 20
107.25
 30
0.0
 11
140.25
 21
117.75
 31
0.0
  0
ARC
  5
16CF
  8
0
  6
CONTINUOUS
 62
     7
 10
145.0
 20
117.75
 30
0.0
 40
4.75
 50
0.0
 51
180.0
  0
ARC
  5
16D0
  8
0
  6
CONTINUOUS
 62
     7
 10
145.0
 20
107.25
 30
0.0
 40
4.75
 50
180.0
 51
0.0
  0
LINE
  5
16D1
  8
CENTER
  6
CENTER
 62
     1
 10
150.94999999999999
 20
212.5
 30
0.0
 11
139.0499999999999
 21
212.5
 31
0.0
  0
LINE
  5
16D2
  8
CENTER
  6
CENTER
 62
     1
 10
145.0
 20
201.5
 30
0.0
 11
145.0
 21
223.5
 31
0.0
  0
LINE
  5
16D3
  8
0
  6
CONTINUOUS
 62
     7
 10
149.75
 20
207.25
 30
0.0
 11
149.75
 21
217.75
 31
0.0
  0
LINE
  5
16D4
  8
0
  6
CONTINUOUS
 62
     7
 10
140.25
 20
207.25
 30
0.0
 11
140.25
 21
217.75
 31
0.0
  0
ARC
  5
16D5
  8
0
  6
CONTINUOUS
 62
     7
 10
145.0
 20
217.75
 30
0.0
 40
4.75
 50
0.0
 51
180.0
  0
ARC
  5
16D6
  8
0
  6
CONTINUOUS
 62
     7
 10
145.0
 20
207.25
 30
0.0
 40
4.75
 50
180.0
 51
0.0
  0
LINE
  5
16D7
  8
CENTER
  6
CENTER
 62
     1
 10
150.94999999999999
 20
337.5
 30
0.0
 11
139.0499999999999
 21
337.5
 31
0.0
  0
LINE
  5
16D8
  8
CENTER
  6
CENTER
 62
     1
 10
145.0
 20
348.5
 30
0.0
 11
145.0
 21
326.5
 31
0.0
  0
LINE
  5
16D9
  8
0
  6
CONTINUOUS
 62
     7
 10
149.75
 20
342.75
 30
0.0
 11
149.75
 21
332.25
 31
0.0
  0
LINE
  5
16DA
  8
0
  6
CONTINUOUS
 62
     7
 10
140.25
 20
342.75
 30
0.0
 11
140.25
 21
332.25
 31
0.0
  0
ARC
  5
16DB
  8
0
  6
CONTINUOUS
 62
     7
 10
145.0
 20
332.25
 30
0.0
 40
4.75
 50
180.0
 51
0.0
  0
ARC
  5
16DC
  8
0
  6
CONTINUOUS
 62
     7
 10
145.0
 20
342.75
 30
0.0
 40
4.75
 50
0.0
 51
180.0
  0
LINE
  5
16DD
  8
CENTER
  6
CENTER
 62
     1
 10
150.94999999999999
 20
237.5
 30
0.0
 11
139.0499999999999
 21
237.5
 31
0.0
  0
LINE
  5
16DE
  8
CENTER
  6
CENTER
 62
     1
 10
145.0
 20
248.5
 30
0.0
 11
145.0
 21
226.5
 31
0.0
  0
LINE
  5
16DF
  8
0
  6
CONTINUOUS
 62
     7
 10
149.75
 20
242.75
 30
0.0
 11
149.75
 21
232.25
 31
0.0
  0
LINE
  5
16E0
  8
0
  6
CONTINUOUS
 62
     7
 10
140.25
 20
242.75
 30
0.0
 11
140.25
 21
232.25
 31
0.0
  0
ARC
  5
16E1
  8
0
  6
CONTINUOUS
 62
     7
 10
145.0
 20
232.25
 30
0.0
 40
4.75
 50
180.0
 51
0.0
  0
ARC
  5
16E2
  8
0
  6
CONTINUOUS
 62
     7
 10
145.0
 20
242.75
 30
0.0
 40
4.75
 50
0.0
 51
180.0
  0
LINE
  5
1761
  8
0
  6
CONTINUOUS
 62
     7
 10
16.0
 20
-3.0
 30
0.0
 11
14.999999999999989
 21
-3.0
 31
0.0
  0
LINE
  5
1762
  8
0
  6
CONTINUOUS
 62
     7
 10
16.0
 20
3.0
 30
0.0
 11
15.0
 21
3.0
 31
0.0
  0
LINE
  5
184E
  8
CENTER
  6
CENTER
 62
     1
 10
13.0
 20
137.5
 30
0.0
 11
132.0
 21
137.5
 31
0.0
  0
LINE
  5
1ADD
  8
0
  6
CONTINUOUS
 62
     7
 10
20.0
 20
10.0
 30
0.0
 11
125.0
 21
10.0
 31
0.0
  0
LINE
  5
1ADE
  8
0
  6
CONTINUOUS
 62
     7
 10
20.0
 20
-10.0
 30
0.0
 11
125.0
 21
-10.0
 31
0.0
  0
LINE
  5
1ADF
  8
0
  6
CONTINUOUS
 62
     7
 10
19.0
 20
-9.0
 30
0.0
 11
19.0
 21
9.0
 31
0.0
  0
ARC
  5
1AE0
  8
0
  6
CONTINUOUS
 62
     7
 10
20.0
 20
-9.0
 30
0.0
 40
1.0
 50
180.0
 51
270.0
  0
LINE
  5
1AE1
  8
0
  6
CONTINUOUS
 62
     7
 10
19.0
 20
-3.719999999999998
 30
0.0
 11
16.0
 21
-3.719999999999998
 31
0.0
  0
LINE
  5
1AE2
  8
0
  6
CONTINUOUS
 62
     7
 10
19.0
 20
3.7199999999999909
 30
0.0
 11
16.0
 21
3.7199999999999909
 31
0.0
  0
LINE
  5
1AE3
  8
0
  6
CONTINUOUS
 62
     7
 10
16.0
 20
3.7199999999999909
 30
0.0
 11
16.0
 21
-3.719999999999998
 31
0.0
  0
ARC
  5
1AE4
  8
0
  6
CONTINUOUS
 62
     7
 10
20.0
 20
9.0
 30
0.0
 40
1.0
 50
90.0
 51
180.0
  0
LINE
  5
1AE5
  8
0
  6
CONTINUOUS
 62
     7
 10
129.0
 20
4.7499999999999911
 30
0.0
 11
129.0
 21
-4.7499999999999991
 31
0.0
  0
LINE
  5
1AE6
  8
0
  6
CONTINUOUS
 62
     7
 10
129.0
 20
4.7499999999999911
 30
0.0
 11
126.0
 21
4.7499999999999911
 31
0.0
  0
LINE
  5
1AE7
  8
0
  6
CONTINUOUS
 62
     7
 10
129.0
 20
-4.7499999999999991
 30
0.0
 11
126.0
 21
-4.7499999999999991
 31
0.0
  0
LINE
  5
1AE8
  8
0
  6
CONTINUOUS
 62
     7
 10
130.0
 20
3.0
 30
0.0
 11
129.0
 21
3.0
 31
0.0
  0
LINE
  5
1AE9
  8
0
  6
CONTINUOUS
 62
     7
 10
16.0
 20
3.0
 30
0.0
 11
15.0
 21
3.0
 31
0.0
  0
LINE
  5
1AEA
  8
0
  6
CONTINUOUS
 62
     7
 10
130.0
 20
-3.0000000000000022
 30
0.0
 11
129.0
 21
-3.0000000000000031
 31
0.0
  0
LINE
  5
1AEB
  8
0
  6
CONTINUOUS
 62
     7
 10
16.0
 20
-3.0
 30
0.0
 11
14.999999999999989
 21
-3.0
 31
0.0
  0
LINE
  5
1AEC
  8
0
  6
CONTINUOUS
 62
     7
 10
126.0
 20
9.0
 30
0.0
 11
126.0
 21
-9.0
 31
0.0
  0
ARC
  5
1AED
  8
0
  6
CONTINUOUS
 62
     7
 10
125.0
 20
-9.0
 30
0.0
 40
1.0
 50
270.0
 51
0.000000000000007
  0
ARC
  5
1AEE
  8
0
  6
CONTINUOUS
 62
     7
 10
125.0
 20
9.0
 30
0.0
 40
1.0
 50
0.000000000000007
 51
90.0
  0
LINE
  5
2681
  8
0
  6
CONTINUOUS
 62
     7
 10
20.0
 20
147.5
 30
0.0
 11
125.0
 21
147.5
 31
0.0
  0
LINE
  5
2682
  8
0
  6
CONTINUOUS
 62
     7
 10
20.0
 20
127.5
 30
0.0
 11
125.0
 21
127.5
 31
0.0
  0
LINE
  5
2683
  8
0
  6
CONTINUOUS
 62
     7
 10
19.0
 20
128.5
 30
0.0
 11
19.0
 21
146.5
 31
0.0
  0
ARC
  5
2684
  8
0
  6
CONTINUOUS
 62
     7
 10
20.0
 20
128.5
 30
0.0
 40
1.0
 50
180.0
 51
270.0
  0
LINE
  5
2685
  8
0
  6
CONTINUOUS
 62
     7
 10
19.0
 20
133.78
 30
0.0
 11
16.0
 21
133.78
 31
0.0
  0
LINE
  5
2686
  8
0
  6
CONTINUOUS
 62
     7
 10
19.0
 20
141.22
 30
0.0
 11
16.0
 21
141.22
 31
0.0
  0
LINE
  5
2687
  8
0
  6
CONTINUOUS
 62
     7
 10
16.0
 20
141.22
 30
0.0
 11
16.0
 21
133.78
 31
0.0
  0
ARC
  5
2688
  8
0
  6
CONTINUOUS
 62
     7
 10
20.0
 20
146.5
 30
0.0
 40
1.0
 50
90.0
 51
180.0
  0
LINE
  5
2689
  8
0
  6
CONTINUOUS
 62
     7
 10
129.0
 20
142.25
 30
0.0
 11
129.0
 21
132.75
 31
0.0
  0
LINE
  5
268A
  8
0
  6
CONTINUOUS
 62
     7
 10
129.0
 20
142.25
 30
0.0
 11
126.0
 21
142.25
 31
0.0
  0
LINE
  5
268B
  8
0
  6
CONTINUOUS
 62
     7
 10
129.0
 20
132.75
 30
0.0
 11
126.0
 21
132.75
 31
0.0
  0
LINE
  5
268C
  8
0
  6
CONTINUOUS
 62
     7
 10
130.0
 20
140.5
 30
0.0
 11
129.0
 21
140.5
 31
0.0
  0
LINE
  5
268D
  8
0
  6
CONTINUOUS
 62
     7
 10
16.0
 20
140.5
 30
0.0
 11
15.0
 21
140.5
 31
0.0
  0
LINE
  5
268E
  8
0
  6
CONTINUOUS
 62
     7
 10
130.0
 20
134.5
 30
0.0
 11
129.0
 21
134.5
 31
0.0
  0
LINE
  5
268F
  8
0
  6
CONTINUOUS
 62
     7
 10
16.0
 20
134.5
 30
0.0
 11
14.999999999999989
 21
134.5
 31
0.0
  0
LINE
  5
2690
  8
0
  6
CONTINUOUS
 62
     7
 10
126.0
 20
146.5
 30
0.0
 11
126.0
 21
128.5
 31
0.0
  0
ARC
  5
2691
  8
0
  6
CONTINUOUS
 62
     7
 10
125.0
 20
128.5
 30
0.0
 40
1.0
 50
270.0
 51
0.0
  0
ARC
  5
2692
  8
0
  6
CONTINUOUS
 62
     7
 10
125.0
 20
146.5
 30
0.0
 40
1.0
 50
0.0
 51
90.0
  0
LINE
  5
2693
  8
0
  6
CONTINUOUS
 62
     7
 10
20.0
 20
147.5
 30
0.0
 11
125.0
 21
147.5
 31
0.0
  0
LINE
  5
2694
  8
0
  6
CONTINUOUS
 62
     7
 10
20.0
 20
127.5
 30
0.0
 11
125.0
 21
127.5
 31
0.0
  0
LINE
  5
2695
  8
0
  6
CONTINUOUS
 62
     7
 10
19.0
 20
128.5
 30
0.0
 11
19.0
 21
146.5
 31
0.0
  0
ARC
  5
2696
  8
0
  6
CONTINUOUS
 62
     7
 10
20.0
 20
128.5
 30
0.0
 40
1.0
 50
180.0
 51
270.0
  0
LINE
  5
2697
  8
0
  6
CONTINUOUS
 62
     7
 10
19.0
 20
133.78
 30
0.0
 11
16.0
 21
133.78
 31
0.0
  0
LINE
  5
2698
  8
0
  6
CONTINUOUS
 62
     7
 10
19.0
 20
141.22
 30
0.0
 11
16.0
 21
141.22
 31
0.0
  0
LINE
  5
2699
  8
0
  6
CONTINUOUS
 62
     7
 10
16.0
 20
141.22
 30
0.0
 11
16.0
 21
133.78
 31
0.0
  0
ARC
  5
269A
  8
0
  6
CONTINUOUS
 62
     7
 10
20.0
 20
146.5
 30
0.0
 40
1.0
 50
90.0
 51
180.0
  0
LINE
  5
269B
  8
0
  6
CONTINUOUS
 62
     7
 10
129.0
 20
142.25
 30
0.0
 11
129.0
 21
132.75
 31
0.0
  0
LINE
  5
269C
  8
0
  6
CONTINUOUS
 62
     7
 10
129.0
 20
142.25
 30
0.0
 11
126.0
 21
142.25
 31
0.0
  0
LINE
  5
269D
  8
0
  6
CONTINUOUS
 62
     7
 10
129.0
 20
132.75
 30
0.0
 11
126.0
 21
132.75
 31
0.0
  0
LINE
  5
269E
  8
0
  6
CONTINUOUS
 62
     7
 10
130.0
 20
140.5
 30
0.0
 11
129.0
 21
140.5
 31
0.0
  0
LINE
  5
269F
  8
0
  6
CONTINUOUS
 62
     7
 10
16.0
 20
140.5
 30
0.0
 11
15.0
 21
140.5
 31
0.0
  0
LINE
  5
26A0
  8
0
  6
CONTINUOUS
 62
     7
 10
130.0
 20
134.5
 30
0.0
 11
129.0
 21
134.5
 31
0.0
  0
LINE
  5
26A1
  8
0
  6
CONTINUOUS
 62
     7
 10
16.0
 20
134.5
 30
0.0
 11
14.999999999999989
 21
134.5
 31
0.0
  0
LINE
  5
26A2
  8
0
  6
CONTINUOUS
 62
     7
 10
126.0
 20
146.5
 30
0.0
 11
126.0
 21
128.5
 31
0.0
  0
ARC
  5
26A3
  8
0
  6
CONTINUOUS
 62
     7
 10
125.0
 20
128.5
 30
0.0
 40
1.0
 50
270.0
 51
0.0
  0
ARC
  5
26A4
  8
0
  6
CONTINUOUS
 62
     7
 10
125.0
 20
146.5
 30
0.0
 40
1.0
 50
0.0
 51
90.0
  0
LINE
  5
26B4
  8
CENTER
  6
CENTER
 62
     1
 10
13.00000000000024
 20
312.5
 30
0.0
 11
132.0000000000002
 21
312.4999999999996
 31
0.0
  0
LINE
  5
26B5
  8
0
  6
CONTINUOUS
 62
     7
 10
20.00000000000022
 20
302.5
 30
0.0
 11
125.0000000000002
 21
302.49999999999972
 31
0.0
  0
LINE
  5
26B6
  8
0
  6
CONTINUOUS
 62
     7
 10
20.000000000000281
 20
322.5
 30
0.0
 11
125.0000000000002
 21
322.4999999999996
 31
0.0
  0
LINE
  5
26B7
  8
0
  6
CONTINUOUS
 62
     7
 10
19.00000000000027
 20
321.5
 30
0.0
 11
19.00000000000022
 21
303.5
 31
0.0
  0
ARC
  5
26B8
  8
0
  6
CONTINUOUS
 62
     7
 10
20.00000000000027
 20
321.5
 30
0.0
 40
1.0
 50
89.999999999999844
 51
180.0
  0
LINE
  5
26B9
  8
0
  6
CONTINUOUS
 62
     7
 10
19.000000000000249
 20
316.22000000000003
 30
0.0
 11
16.000000000000249
 21
316.22000000000003
 31
0.0
  0
LINE
  5
26BA
  8
0
  6
CONTINUOUS
 62
     7
 10
19.000000000000231
 20
308.77999999999997
 30
0.0
 11
16.000000000000231
 21
308.77999999999997
 31
0.0
  0
LINE
  5
26BB
  8
0
  6
CONTINUOUS
 62
     7
 10
16.000000000000231
 20
308.77999999999997
 30
0.0
 11
16.000000000000249
 21
316.22000000000003
 31
0.0
  0
ARC
  5
26BC
  8
0
  6
CONTINUOUS
 62
     7
 10
20.00000000000022
 20
303.5
 30
0.0
 40
1.0
 50
180.0
 51
269.99999999999977
  0
LINE
  5
26BD
  8
0
  6
CONTINUOUS
 62
     7
 10
129.0000000000002
 20
307.74999999999972
 30
0.0
 11
129.0000000000002
 21
317.24999999999972
 31
0.0
  0
LINE
  5
26BE
  8
0
  6
CONTINUOUS
 62
     7
 10
129.0000000000002
 20
307.74999999999972
 30
0.0
 11
126.0000000000002
 21
307.74999999999972
 31
0.0
  0
LINE
  5
26BF
  8
0
  6
CONTINUOUS
 62
     7
 10
129.0000000000002
 20
317.24999999999972
 30
0.0
 11
126.0000000000002
 21
317.24999999999972
 31
0.0
  0
LINE
  5
26C0
  8
0
  6
CONTINUOUS
 62
     7
 10
130.0000000000002
 20
309.49999999999972
 30
0.0
 11
129.0000000000002
 21
309.49999999999972
 31
0.0
  0
LINE
  5
26C1
  8
0
  6
CONTINUOUS
 62
     7
 10
16.000000000000242
 20
309.5
 30
0.0
 11
15.000000000000229
 21
309.5
 31
0.0
  0
LINE
  5
26C2
  8
0
  6
CONTINUOUS
 62
     7
 10
130.0000000000002
 20
315.49999999999972
 30
0.0
 11
129.0000000000002
 21
315.49999999999972
 31
0.0
  0
LINE
  5
26C3
  8
0
  6
CONTINUOUS
 62
     7
 10
16.000000000000259
 20
315.5
 30
0.0
 11
15.00000000000025
 21
315.5
 31
0.0
  0
LINE
  5
26C4
  8
0
  6
CONTINUOUS
 62
     7
 10
126.0000000000002
 20
303.49999999999972
 30
0.0
 11
126.0000000000002
 21
321.49999999999972
 31
0.0
  0
ARC
  5
26C5
  8
0
  6
CONTINUOUS
 62
     7
 10
125.0000000000002
 20
321.49999999999972
 30
0.0
 40
1.0
 50
0.0
 51
89.999999999999844
  0
ARC
  5
26C6
  8
0
  6
CONTINUOUS
 62
     7
 10
125.0000000000002
 20
303.49999999999972
 30
0.0
 40
1.0
 50
269.99999999999977
 51
0.0
  0
LINE
  5
26C7
  8
0
  6
CONTINUOUS
 62
     7
 10
20.00000000000022
 20
302.5
 30
0.0
 11
125.0000000000002
 21
302.49999999999972
 31
0.0
  0
LINE
  5
26C8
  8
0
  6
CONTINUOUS
 62
     7
 10
20.000000000000281
 20
322.5
 30
0.0
 11
125.0000000000002
 21
322.4999999999996
 31
0.0
  0
LINE
  5
26C9
  8
0
  6
CONTINUOUS
 62
     7
 10
19.00000000000027
 20
321.5
 30
0.0
 11
19.00000000000022
 21
303.5
 31
0.0
  0
ARC
  5
26CA
  8
0
  6
CONTINUOUS
 62
     7
 10
20.00000000000027
 20
321.5
 30
0.0
 40
1.0
 50
89.999999999999844
 51
180.0
  0
LINE
  5
26CB
  8
0
  6
CONTINUOUS
 62
     7
 10
19.000000000000249
 20
316.22000000000003
 30
0.0
 11
16.000000000000249
 21
316.22000000000003
 31
0.0
  0
LINE
  5
26CC
  8
0
  6
CONTINUOUS
 62
     7
 10
19.000000000000231
 20
308.77999999999997
 30
0.0
 11
16.000000000000231
 21
308.77999999999997
 31
0.0
  0
LINE
  5
26CD
  8
0
  6
CONTINUOUS
 62
     7
 10
16.000000000000231
 20
308.77999999999997
 30
0.0
 11
16.000000000000249
 21
316.22000000000003
 31
0.0
  0
ARC
  5
26CE
  8
0
  6
CONTINUOUS
 62
     7
 10
20.00000000000022
 20
303.5
 30
0.0
 40
1.0
 50
180.0
 51
269.99999999999977
  0
LINE
  5
26CF
  8
0
  6
CONTINUOUS
 62
     7
 10
129.0000000000002
 20
307.74999999999972
 30
0.0
 11
129.0000000000002
 21
317.24999999999972
 31
0.0
  0
LINE
  5
26D0
  8
0
  6
CONTINUOUS
 62
     7
 10
129.0000000000002
 20
307.74999999999972
 30
0.0
 11
126.0000000000002
 21
307.74999999999972
 31
0.0
  0
LINE
  5
26D1
  8
0
  6
CONTINUOUS
 62
     7
 10
129.0000000000002
 20
317.24999999999972
 30
0.0
 11
126.0000000000002
 21
317.24999999999972
 31
0.0
  0
LINE
  5
26D2
  8
0
  6
CONTINUOUS
 62
     7
 10
130.0000000000002
 20
309.49999999999972
 30
0.0
 11
129.0000000000002
 21
309.49999999999972
 31
0.0
  0
LINE
  5
26D3
  8
0
  6
CONTINUOUS
 62
     7
 10
16.000000000000242
 20
309.5
 30
0.0
 11
15.000000000000229
 21
309.5
 31
0.0
  0
LINE
  5
26D4
  8
0
  6
CONTINUOUS
 62
     7
 10
130.0000000000002
 20
315.49999999999972
 30
0.0
 11
129.0000000000002
 21
315.49999999999972
 31
0.0
  0
LINE
  5
26D5
  8
0
  6
CONTINUOUS
 62
     7
 10
16.000000000000259
 20
315.5
 30
0.0
 11
15.00000000000025
 21
315.5
 31
0.0
  0
LINE
  5
26D6
  8
0
  6
CONTINUOUS
 62
     7
 10
126.0000000000002
 20
303.49999999999972
 30
0.0
 11
126.0000000000002
 21
321.49999999999972
 31
0.0
  0
ARC
  5
26D7
  8
0
  6
CONTINUOUS
 62
     7
 10
125.0000000000002
 20
321.49999999999972
 30
0.0
 40
1.0
 50
0.0
 51
89.999999999999844
  0
ARC
  5
26D8
  8
0
  6
CONTINUOUS
 62
     7
 10
125.0000000000002
 20
303.49999999999972
 30
0.0
 40
1.0
 50
269.99999999999977
 51
0.0
  0
LINE
  5
26E0
  8
CENTER
  6
CENTER
 62
     1
 10
13.00000000000003
 20
162.5
 30
0.0
 11
132.0
 21
162.5
 31
0.0
  0
LINE
  5
26E1
  8
0
  6
CONTINUOUS
 62
     7
 10
20.000000000000028
 20
172.49999999999989
 30
0.0
 11
125.0
 21
172.49999999999989
 31
0.0
  0
LINE
  5
26E2
  8
0
  6
CONTINUOUS
 62
     7
 10
20.000000000000028
 20
152.49999999999989
 30
0.0
 11
125.0
 21
152.49999999999989
 31
0.0
  0
LINE
  5
26E3
  8
0
  6
CONTINUOUS
 62
     7
 10
19.000000000000028
 20
153.49999999999989
 30
0.0
 11
19.000000000000028
 21
171.5
 31
0.0
  0
ARC
  5
26E4
  8
0
  6
CONTINUOUS
 62
     7
 10
20.000000000000028
 20
153.49999999999989
 30
0.0
 40
1.0
 50
180.0
 51
270.0
  0
LINE
  5
26E5
  8
0
  6
CONTINUOUS
 62
     7
 10
19.000000000000028
 20
158.77999999999989
 30
0.0
 11
16.000000000000028
 21
158.77999999999989
 31
0.0
  0
LINE
  5
26E6
  8
0
  6
CONTINUOUS
 62
     7
 10
19.000000000000028
 20
166.21999999999991
 30
0.0
 11
16.000000000000028
 21
166.21999999999991
 31
0.0
  0
LINE
  5
26E7
  8
0
  6
CONTINUOUS
 62
     7
 10
16.000000000000028
 20
166.21999999999991
 30
0.0
 11
16.000000000000028
 21
158.77999999999989
 31
0.0
  0
ARC
  5
26E8
  8
0
  6
CONTINUOUS
 62
     7
 10
20.000000000000028
 20
171.5
 30
0.0
 40
1.0
 50
90.0
 51
180.0
  0
LINE
  5
26E9
  8
0
  6
CONTINUOUS
 62
     7
 10
129.0
 20
167.24999999999989
 30
0.0
 11
129.0
 21
157.74999999999989
 31
0.0
  0
LINE
  5
26EA
  8
0
  6
CONTINUOUS
 62
     7
 10
129.0
 20
167.24999999999989
 30
0.0
 11
126.0
 21
167.24999999999989
 31
0.0
  0
LINE
  5
26EB
  8
0
  6
CONTINUOUS
 62
     7
 10
129.0
 20
157.74999999999989
 30
0.0
 11
126.0
 21
157.74999999999989
 31
0.0
  0
LINE
  5
26EC
  8
0
  6
CONTINUOUS
 62
     7
 10
130.0
 20
165.5
 30
0.0
 11
129.0
 21
165.5
 31
0.0
  0
LINE
  5
26ED
  8
0
  6
CONTINUOUS
 62
     7
 10
16.000000000000028
 20
165.5
 30
0.0
 11
15.00000000000003
 21
165.5
 31
0.0
  0
LINE
  5
26EE
  8
0
  6
CONTINUOUS
 62
     7
 10
130.0
 20
159.49999999999989
 30
0.0
 11
129.0
 21
159.49999999999989
 31
0.0
  0
LINE
  5
26EF
  8
0
  6
CONTINUOUS
 62
     7
 10
16.000000000000028
 20
159.49999999999989
 30
0.0
 11
15.00000000000002
 21
159.49999999999989
 31
0.0
  0
LINE
  5
26F0
  8
0
  6
CONTINUOUS
 62
     7
 10
126.0
 20
171.5
 30
0.0
 11
126.0
 21
153.49999999999989
 31
0.0
  0
ARC
  5
26F1
  8
0
  6
CONTINUOUS
 62
     7
 10
125.0
 20
153.49999999999989
 30
0.0
 40
1.0
 50
270.0
 51
0.0
  0
ARC
  5
26F2
  8
0
  6
CONTINUOUS
 62
     7
 10
125.0
 20
171.5
 30
0.0
 40
1.0
 50
0.0
 51
90.0
  0
LINE
  5
26F3
  8
0
  6
CONTINUOUS
 62
     7
 10
20.000000000000028
 20
172.49999999999989
 30
0.0
 11
125.0
 21
172.49999999999989
 31
0.0
  0
LINE
  5
26F4
  8
0
  6
CONTINUOUS
 62
     7
 10
20.000000000000028
 20
152.49999999999989
 30
0.0
 11
125.0
 21
152.49999999999989
 31
0.0
  0
LINE
  5
26F5
  8
0
  6
CONTINUOUS
 62
     7
 10
19.000000000000028
 20
153.49999999999989
 30
0.0
 11
19.000000000000028
 21
171.5
 31
0.0
  0
ARC
  5
26F6
  8
0
  6
CONTINUOUS
 62
     7
 10
20.000000000000028
 20
153.49999999999989
 30
0.0
 40
1.0
 50
180.0
 51
270.0
  0
LINE
  5
26F7
  8
0
  6
CONTINUOUS
 62
     7
 10
19.000000000000028
 20
158.77999999999989
 30
0.0
 11
16.000000000000028
 21
158.77999999999989
 31
0.0
  0
LINE
  5
26F8
  8
0
  6
CONTINUOUS
 62
     7
 10
19.000000000000028
 20
166.21999999999991
 30
0.0
 11
16.000000000000028
 21
166.21999999999991
 31
0.0
  0
LINE
  5
26F9
  8
0
  6
CONTINUOUS
 62
     7
 10
16.000000000000028
 20
166.21999999999991
 30
0.0
 11
16.000000000000028
 21
158.77999999999989
 31
0.0
  0
ARC
  5
26FA
  8
0
  6
CONTINUOUS
 62
     7
 10
20.000000000000028
 20
171.5
 30
0.0
 40
1.0
 50
90.0
 51
180.0
  0
LINE
  5
26FB
  8
0
  6
CONTINUOUS
 62
     7
 10
129.0
 20
167.24999999999989
 30
0.0
 11
129.0
 21
157.74999999999989
 31
0.0
  0
LINE
  5
26FC
  8
0
  6
CONTINUOUS
 62
     7
 10
129.0
 20
167.24999999999989
 30
0.0
 11
126.0
 21
167.24999999999989
 31
0.0
  0
LINE
  5
26FD
  8
0
  6
CONTINUOUS
 62
     7
 10
129.0
 20
157.74999999999989
 30
0.0
 11
126.0
 21
157.74999999999989
 31
0.0
  0
LINE
  5
26FE
  8
0
  6
CONTINUOUS
 62
     7
 10
130.0
 20
165.5
 30
0.0
 11
129.0
 21
165.5
 31
0.0
  0
LINE
  5
26FF
  8
0
  6
CONTINUOUS
 62
     7
 10
16.000000000000028
 20
165.5
 30
0.0
 11
15.00000000000003
 21
165.5
 31
0.0
  0
LINE
  5
2700
  8
0
  6
CONTINUOUS
 62
     7
 10
130.0
 20
159.49999999999989
 30
0.0
 11
129.0
 21
159.49999999999989
 31
0.0
  0
LINE
  5
2701
  8
0
  6
CONTINUOUS
 62
     7
 10
16.000000000000028
 20
159.49999999999989
 30
0.0
 11
15.00000000000002
 21
159.49999999999989
 31
0.0
  0
LINE
  5
2702
  8
0
  6
CONTINUOUS
 62
     7
 10
126.0
 20
171.5
 30
0.0
 11
126.0
 21
153.49999999999989
 31
0.0
  0
ARC
  5
2703
  8
0
  6
CONTINUOUS
 62
     7
 10
125.0
 20
153.49999999999989
 30
0.0
 40
1.0
 50
270.0
 51
0.0
  0
ARC
  5
2704
  8
0
  6
CONTINUOUS
 62
     7
 10
125.0
 20
171.5
 30
0.0
 40
1.0
 50
0.0
 51
90.0
  0
LINE
  5
2705
  8
CENTER
  6
CENTER
 62
     1
 10
13.00000000000008
 20
187.49999999999989
 30
0.0
 11
132.00000000000011
 21
187.49999999999989
 31
0.0
  0
LINE
  5
2706
  8
0
  6
CONTINUOUS
 62
     7
 10
20.000000000000082
 20
197.49999999999989
 30
0.0
 11
125.0000000000001
 21
197.49999999999989
 31
0.0
  0
LINE
  5
2707
  8
0
  6
CONTINUOUS
 62
     7
 10
20.000000000000082
 20
177.49999999999989
 30
0.0
 11
125.0000000000001
 21
177.49999999999989
 31
0.0
  0
LINE
  5
2708
  8
0
  6
CONTINUOUS
 62
     7
 10
19.000000000000082
 20
178.49999999999989
 30
0.0
 11
19.000000000000082
 21
196.49999999999989
 31
0.0
  0
ARC
  5
2709
  8
0
  6
CONTINUOUS
 62
     7
 10
20.000000000000082
 20
178.49999999999989
 30
0.0
 40
1.0
 50
180.0
 51
270.0
  0
LINE
  5
270A
  8
0
  6
CONTINUOUS
 62
     7
 10
19.000000000000082
 20
183.77999999999989
 30
0.0
 11
16.000000000000082
 21
183.77999999999989
 31
0.0
  0
LINE
  5
270B
  8
0
  6
CONTINUOUS
 62
     7
 10
19.000000000000082
 20
191.21999999999991
 30
0.0
 11
16.000000000000082
 21
191.21999999999991
 31
0.0
  0
LINE
  5
270C
  8
0
  6
CONTINUOUS
 62
     7
 10
16.000000000000082
 20
191.21999999999991
 30
0.0
 11
16.000000000000082
 21
183.77999999999989
 31
0.0
  0
ARC
  5
270D
  8
0
  6
CONTINUOUS
 62
     7
 10
20.000000000000082
 20
196.49999999999989
 30
0.0
 40
1.0
 50
90.0
 51
180.0
  0
LINE
  5
270E
  8
0
  6
CONTINUOUS
 62
     7
 10
129.00000000000011
 20
192.24999999999989
 30
0.0
 11
129.00000000000011
 21
182.74999999999989
 31
0.0
  0
LINE
  5
270F
  8
0
  6
CONTINUOUS
 62
     7
 10
129.00000000000011
 20
192.24999999999989
 30
0.0
 11
126.0000000000001
 21
192.24999999999989
 31
0.0
  0
LINE
  5
2710
  8
0
  6
CONTINUOUS
 62
     7
 10
129.00000000000011
 20
182.74999999999989
 30
0.0
 11
126.0000000000001
 21
182.74999999999989
 31
0.0
  0
LINE
  5
2711
  8
0
  6
CONTINUOUS
 62
     7
 10
130.00000000000011
 20
190.49999999999989
 30
0.0
 11
129.00000000000011
 21
190.49999999999989
 31
0.0
  0
LINE
  5
2712
  8
0
  6
CONTINUOUS
 62
     7
 10
16.000000000000089
 20
190.49999999999989
 30
0.0
 11
15.00000000000008
 21
190.49999999999989
 31
0.0
  0
LINE
  5
2713
  8
0
  6
CONTINUOUS
 62
     7
 10
130.00000000000011
 20
184.49999999999989
 30
0.0
 11
129.00000000000011
 21
184.49999999999989
 31
0.0
  0
LINE
  5
2714
  8
0
  6
CONTINUOUS
 62
     7
 10
16.000000000000089
 20
184.49999999999989
 30
0.0
 11
15.00000000000008
 21
184.49999999999989
 31
0.0
  0
LINE
  5
2715
  8
0
  6
CONTINUOUS
 62
     7
 10
126.0000000000001
 20
196.49999999999989
 30
0.0
 11
126.0000000000001
 21
178.49999999999989
 31
0.0
  0
ARC
  5
2716
  8
0
  6
CONTINUOUS
 62
     7
 10
125.0000000000001
 20
178.49999999999989
 30
0.0
 40
1.0
 50
270.0
 51
0.0
  0
ARC
  5
2717
  8
0
  6
CONTINUOUS
 62
     7
 10
125.0000000000001
 20
196.49999999999989
 30
0.0
 40
1.0
 50
0.0
 51
90.0
  0
LINE
  5
2718
  8
0
  6
CONTINUOUS
 62
     7
 10
20.000000000000082
 20
197.49999999999989
 30
0.0
 11
125.0000000000001
 21
197.49999999999989
 31
0.0
  0
LINE
  5
2719
  8
0
  6
CONTINUOUS
 62
     7
 10
20.000000000000082
 20
177.49999999999989
 30
0.0
 11
125.0000000000001
 21
177.49999999999989
 31
0.0
  0
LINE
  5
271A
  8
0
  6
CONTINUOUS
 62
     7
 10
19.000000000000082
 20
178.49999999999989
 30
0.0
 11
19.000000000000082
 21
196.49999999999989
 31
0.0
  0
ARC
  5
271B
  8
0
  6
CONTINUOUS
 62
     7
 10
20.000000000000082
 20
178.49999999999989
 30
0.0
 40
1.0
 50
180.0
 51
270.0
  0
LINE
  5
271C
  8
0
  6
CONTINUOUS
 62
     7
 10
19.000000000000082
 20
183.77999999999989
 30
0.0
 11
16.000000000000082
 21
183.77999999999989
 31
0.0
  0
LINE
  5
271D
  8
0
  6
CONTINUOUS
 62
     7
 10
19.000000000000082
 20
191.21999999999991
 30
0.0
 11
16.000000000000082
 21
191.21999999999991
 31
0.0
  0
LINE
  5
271E
  8
0
  6
CONTINUOUS
 62
     7
 10
16.000000000000082
 20
191.21999999999991
 30
0.0
 11
16.000000000000082
 21
183.77999999999989
 31
0.0
  0
ARC
  5
271F
  8
0
  6
CONTINUOUS
 62
     7
 10
20.000000000000082
 20
196.49999999999989
 30
0.0
 40
1.0
 50
90.0
 51
180.0
  0
LINE
  5
2720
  8
0
  6
CONTINUOUS
 62
     7
 10
129.00000000000011
 20
192.24999999999989
 30
0.0
 11
129.00000000000011
 21
182.74999999999989
 31
0.0
  0
LINE
  5
2721
  8
0
  6
CONTINUOUS
 62
     7
 10
129.00000000000011
 20
192.24999999999989
 30
0.0
 11
126.0000000000001
 21
192.24999999999989
 31
0.0
  0
LINE
  5
2722
  8
0
  6
CONTINUOUS
 62
     7
 10
129.00000000000011
 20
182.74999999999989
 30
0.0
 11
126.0000000000001
 21
182.74999999999989
 31
0.0
  0
LINE
  5
2723
  8
0
  6
CONTINUOUS
 62
     7
 10
130.00000000000011
 20
190.49999999999989
 30
0.0
 11
129.00000000000011
 21
190.49999999999989
 31
0.0
  0
LINE
  5
2724
  8
0
  6
CONTINUOUS
 62
     7
 10
16.000000000000089
 20
190.49999999999989
 30
0.0
 11
15.00000000000008
 21
190.49999999999989
 31
0.0
  0
LINE
  5
2725
  8
0
  6
CONTINUOUS
 62
     7
 10
130.00000000000011
 20
184.49999999999989
 30
0.0
 11
129.00000000000011
 21
184.49999999999989
 31
0.0
  0
LINE
  5
2726
  8
0
  6
CONTINUOUS
 62
     7
 10
16.000000000000089
 20
184.49999999999989
 30
0.0
 11
15.00000000000008
 21
184.49999999999989
 31
0.0
  0
LINE
  5
2727
  8
0
  6
CONTINUOUS
 62
     7
 10
126.0000000000001
 20
196.49999999999989
 30
0.0
 11
126.0000000000001
 21
178.49999999999989
 31
0.0
  0
ARC
  5
2728
  8
0
  6
CONTINUOUS
 62
     7
 10
125.0000000000001
 20
178.49999999999989
 30
0.0
 40
1.0
 50
270.0
 51
0.0
  0
ARC
  5
2729
  8
0
  6
CONTINUOUS
 62
     7
 10
125.0000000000001
 20
196.49999999999989
 30
0.0
 40
1.0
 50
0.0
 51
90.0
  0
LINE
  5
272A
  8
CENTER
  6
CENTER
 62
     1
 10
13.00000000000011
 20
212.49999999999989
 30
0.0
 11
132.00000000000011
 21
212.49999999999989
 31
0.0
  0
LINE
  5
272B
  8
0
  6
CONTINUOUS
 62
     7
 10
20.00000000000011
 20
222.49999999999989
 30
0.0
 11
125.0000000000001
 21
222.49999999999989
 31
0.0
  0
LINE
  5
272C
  8
0
  6
CONTINUOUS
 62
     7
 10
20.00000000000011
 20
202.49999999999989
 30
0.0
 11
125.0000000000001
 21
202.49999999999989
 31
0.0
  0
LINE
  5
272D
  8
0
  6
CONTINUOUS
 62
     7
 10
19.00000000000011
 20
203.49999999999989
 30
0.0
 11
19.00000000000011
 21
221.49999999999989
 31
0.0
  0
ARC
  5
272E
  8
0
  6
CONTINUOUS
 62
     7
 10
20.00000000000011
 20
203.49999999999989
 30
0.0
 40
1.0
 50
180.0
 51
270.0
  0
LINE
  5
272F
  8
0
  6
CONTINUOUS
 62
     7
 10
19.00000000000011
 20
208.77999999999989
 30
0.0
 11
16.00000000000011
 21
208.77999999999989
 31
0.0
  0
LINE
  5
2730
  8
0
  6
CONTINUOUS
 62
     7
 10
19.00000000000011
 20
216.21999999999991
 30
0.0
 11
16.00000000000011
 21
216.21999999999991
 31
0.0
  0
LINE
  5
2731
  8
0
  6
CONTINUOUS
 62
     7
 10
16.00000000000011
 20
216.21999999999991
 30
0.0
 11
16.00000000000011
 21
208.77999999999989
 31
0.0
  0
ARC
  5
2732
  8
0
  6
CONTINUOUS
 62
     7
 10
20.00000000000011
 20
221.49999999999989
 30
0.0
 40
1.0
 50
90.0
 51
180.0
  0
LINE
  5
2733
  8
0
  6
CONTINUOUS
 62
     7
 10
129.00000000000011
 20
217.24999999999989
 30
0.0
 11
129.00000000000011
 21
207.74999999999989
 31
0.0
  0
LINE
  5
2734
  8
0
  6
CONTINUOUS
 62
     7
 10
129.00000000000011
 20
217.24999999999989
 30
0.0
 11
126.0000000000001
 21
217.24999999999989
 31
0.0
  0
LINE
  5
2735
  8
0
  6
CONTINUOUS
 62
     7
 10
129.00000000000011
 20
207.74999999999989
 30
0.0
 11
126.0000000000001
 21
207.74999999999989
 31
0.0
  0
LINE
  5
2736
  8
0
  6
CONTINUOUS
 62
     7
 10
130.00000000000011
 20
215.49999999999989
 30
0.0
 11
129.00000000000011
 21
215.49999999999989
 31
0.0
  0
LINE
  5
2737
  8
0
  6
CONTINUOUS
 62
     7
 10
16.000000000000121
 20
215.49999999999989
 30
0.0
 11
15.00000000000011
 21
215.49999999999989
 31
0.0
  0
LINE
  5
2738
  8
0
  6
CONTINUOUS
 62
     7
 10
130.00000000000011
 20
209.49999999999989
 30
0.0
 11
129.00000000000011
 21
209.49999999999989
 31
0.0
  0
LINE
  5
2739
  8
0
  6
CONTINUOUS
 62
     7
 10
16.000000000000121
 20
209.49999999999989
 30
0.0
 11
15.000000000000099
 21
209.49999999999989
 31
0.0
  0
LINE
  5
273A
  8
0
  6
CONTINUOUS
 62
     7
 10
126.0000000000001
 20
221.49999999999989
 30
0.0
 11
126.0000000000001
 21
203.49999999999989
 31
0.0
  0
ARC
  5
273B
  8
0
  6
CONTINUOUS
 62
     7
 10
125.0000000000001
 20
203.49999999999989
 30
0.0
 40
1.0
 50
270.0
 51
0.0
  0
ARC
  5
273C
  8
0
  6
CONTINUOUS
 62
     7
 10
125.0000000000001
 20
221.49999999999989
 30
0.0
 40
1.0
 50
0.0
 51
90.0
  0
LINE
  5
273D
  8
0
  6
CONTINUOUS
 62
     7
 10
20.00000000000011
 20
222.49999999999989
 30
0.0
 11
125.0000000000001
 21
222.49999999999989
 31
0.0
  0
LINE
  5
273E
  8
0
  6
CONTINUOUS
 62
     7
 10
20.00000000000011
 20
202.49999999999989
 30
0.0
 11
125.0000000000001
 21
202.49999999999989
 31
0.0
  0
LINE
  5
273F
  8
0
  6
CONTINUOUS
 62
     7
 10
19.00000000000011
 20
203.49999999999989
 30
0.0
 11
19.00000000000011
 21
221.49999999999989
 31
0.0
  0
ARC
  5
2740
  8
0
  6
CONTINUOUS
 62
     7
 10
20.00000000000011
 20
203.49999999999989
 30
0.0
 40
1.0
 50
180.0
 51
270.0
  0
LINE
  5
2741
  8
0
  6
CONTINUOUS
 62
     7
 10
19.00000000000011
 20
208.77999999999989
 30
0.0
 11
16.00000000000011
 21
208.77999999999989
 31
0.0
  0
LINE
  5
2742
  8
0
  6
CONTINUOUS
 62
     7
 10
19.00000000000011
 20
216.21999999999991
 30
0.0
 11
16.00000000000011
 21
216.21999999999991
 31
0.0
  0
LINE
  5
2743
  8
0
  6
CONTINUOUS
 62
     7
 10
16.00000000000011
 20
216.21999999999991
 30
0.0
 11
16.00000000000011
 21
208.77999999999989
 31
0.0
  0
ARC
  5
2744
  8
0
  6
CONTINUOUS
 62
     7
 10
20.00000000000011
 20
221.49999999999989
 30
0.0
 40
1.0
 50
90.0
 51
180.0
  0
LINE
  5
2745
  8
0
  6
CONTINUOUS
 62
     7
 10
129.00000000000011
 20
217.24999999999989
 30
0.0
 11
129.00000000000011
 21
207.74999999999989
 31
0.0
  0
LINE
  5
2746
  8
0
  6
CONTINUOUS
 62
     7
 10
129.00000000000011
 20
217.24999999999989
 30
0.0
 11
126.0000000000001
 21
217.24999999999989
 31
0.0
  0
LINE
  5
2747
  8
0
  6
CONTINUOUS
 62
     7
 10
129.00000000000011
 20
207.74999999999989
 30
0.0
 11
126.0000000000001
 21
207.74999999999989
 31
0.0
  0
LINE
  5
2748
  8
0
  6
CONTINUOUS
 62
     7
 10
130.00000000000011
 20
215.49999999999989
 30
0.0
 11
129.00000000000011
 21
215.49999999999989
 31
0.0
  0
LINE
  5
2749
  8
0
  6
CONTINUOUS
 62
     7
 10
16.000000000000121
 20
215.49999999999989
 30
0.0
 11
15.00000000000011
 21
215.49999999999989
 31
0.0
  0
LINE
  5
274A
  8
0
  6
CONTINUOUS
 62
     7
 10
130.00000000000011
 20
209.49999999999989
 30
0.0
 11
129.00000000000011
 21
209.49999999999989
 31
0.0
  0
LINE
  5
274B
  8
0
  6
CONTINUOUS
 62
     7
 10
16.000000000000121
 20
209.49999999999989
 30
0.0
 11
15.000000000000099
 21
209.49999999999989
 31
0.0
  0
LINE
  5
274C
  8
0
  6
CONTINUOUS
 62
     7
 10
126.0000000000001
 20
221.49999999999989
 30
0.0
 11
126.0000000000001
 21
203.49999999999989
 31
0.0
  0
ARC
  5
274D
  8
0
  6
CONTINUOUS
 62
     7
 10
125.0000000000001
 20
203.49999999999989
 30
0.0
 40
1.0
 50
270.0
 51
0.0
  0
ARC
  5
274E
  8
0
  6
CONTINUOUS
 62
     7
 10
125.0000000000001
 20
221.49999999999989
 30
0.0
 40
1.0
 50
0.0
 51
90.0
  0
LINE
  5
274F
  8
CENTER
  6
CENTER
 62
     1
 10
13.00000000000014
 20
237.4999999999998
 30
0.0
 11
132.00000000000011
 21
237.4999999999998
 31
0.0
  0
LINE
  5
2750
  8
0
  6
CONTINUOUS
 62
     7
 10
20.000000000000139
 20
247.4999999999998
 30
0.0
 11
125.0000000000001
 21
247.4999999999998
 31
0.0
  0
LINE
  5
2751
  8
0
  6
CONTINUOUS
 62
     7
 10
20.000000000000139
 20
227.4999999999998
 30
0.0
 11
125.0000000000001
 21
227.4999999999998
 31
0.0
  0
LINE
  5
2752
  8
0
  6
CONTINUOUS
 62
     7
 10
19.000000000000139
 20
228.4999999999998
 30
0.0
 11
19.000000000000139
 21
246.4999999999998
 31
0.0
  0
ARC
  5
2753
  8
0
  6
CONTINUOUS
 62
     7
 10
20.000000000000139
 20
228.4999999999998
 30
0.0
 40
1.0
 50
180.0
 51
270.0
  0
LINE
  5
2754
  8
0
  6
CONTINUOUS
 62
     7
 10
19.000000000000139
 20
233.7799999999998
 30
0.0
 11
16.000000000000139
 21
233.7799999999998
 31
0.0
  0
LINE
  5
2755
  8
0
  6
CONTINUOUS
 62
     7
 10
19.000000000000139
 20
241.2199999999998
 30
0.0
 11
16.000000000000139
 21
241.2199999999998
 31
0.0
  0
LINE
  5
2756
  8
0
  6
CONTINUOUS
 62
     7
 10
16.000000000000139
 20
241.2199999999998
 30
0.0
 11
16.000000000000139
 21
233.7799999999998
 31
0.0
  0
ARC
  5
2757
  8
0
  6
CONTINUOUS
 62
     7
 10
20.000000000000139
 20
246.4999999999998
 30
0.0
 40
1.0
 50
90.0
 51
180.0
  0
LINE
  5
2758
  8
0
  6
CONTINUOUS
 62
     7
 10
129.00000000000011
 20
242.2499999999998
 30
0.0
 11
129.00000000000011
 21
232.7499999999998
 31
0.0
  0
LINE
  5
2759
  8
0
  6
CONTINUOUS
 62
     7
 10
129.00000000000011
 20
242.2499999999998
 30
0.0
 11
126.0000000000001
 21
242.2499999999998
 31
0.0
  0
LINE
  5
275A
  8
0
  6
CONTINUOUS
 62
     7
 10
129.00000000000011
 20
232.7499999999998
 30
0.0
 11
126.0000000000001
 21
232.7499999999998
 31
0.0
  0
LINE
  5
275B
  8
0
  6
CONTINUOUS
 62
     7
 10
130.00000000000011
 20
240.4999999999998
 30
0.0
 11
129.00000000000011
 21
240.4999999999998
 31
0.0
  0
LINE
  5
275C
  8
0
  6
CONTINUOUS
 62
     7
 10
16.000000000000149
 20
240.4999999999998
 30
0.0
 11
15.00000000000014
 21
240.4999999999998
 31
0.0
  0
LINE
  5
275D
  8
0
  6
CONTINUOUS
 62
     7
 10
130.00000000000011
 20
234.4999999999998
 30
0.0
 11
129.00000000000011
 21
234.4999999999998
 31
0.0
  0
LINE
  5
275E
  8
0
  6
CONTINUOUS
 62
     7
 10
16.000000000000149
 20
234.4999999999998
 30
0.0
 11
15.00000000000013
 21
234.4999999999998
 31
0.0
  0
LINE
  5
275F
  8
0
  6
CONTINUOUS
 62
     7
 10
126.0000000000001
 20
246.4999999999998
 30
0.0
 11
126.0000000000001
 21
228.4999999999998
 31
0.0
  0
ARC
  5
2760
  8
0
  6
CONTINUOUS
 62
     7
 10
125.0000000000001
 20
228.4999999999998
 30
0.0
 40
1.0
 50
270.0
 51
0.0
  0
ARC
  5
2761
  8
0
  6
CONTINUOUS
 62
     7
 10
125.0000000000001
 20
246.4999999999998
 30
0.0
 40
1.0
 50
0.0
 51
90.0
  0
LINE
  5
2762
  8
0
  6
CONTINUOUS
 62
     7
 10
20.000000000000139
 20
247.4999999999998
 30
0.0
 11
125.0000000000001
 21
247.4999999999998
 31
0.0
  0
LINE
  5
2763
  8
0
  6
CONTINUOUS
 62
     7
 10
20.000000000000139
 20
227.4999999999998
 30
0.0
 11
125.0000000000001
 21
227.4999999999998
 31
0.0
  0
LINE
  5
2764
  8
0
  6
CONTINUOUS
 62
     7
 10
19.000000000000139
 20
228.4999999999998
 30
0.0
 11
19.000000000000139
 21
246.4999999999998
 31
0.0
  0
ARC
  5
2765
  8
0
  6
CONTINUOUS
 62
     7
 10
20.000000000000139
 20
228.4999999999998
 30
0.0
 40
1.0
 50
180.0
 51
270.0
  0
LINE
  5
2766
  8
0
  6
CONTINUOUS
 62
     7
 10
19.000000000000139
 20
233.7799999999998
 30
0.0
 11
16.000000000000139
 21
233.7799999999998
 31
0.0
  0
LINE
  5
2767
  8
0
  6
CONTINUOUS
 62
     7
 10
19.000000000000139
 20
241.2199999999998
 30
0.0
 11
16.000000000000139
 21
241.2199999999998
 31
0.0
  0
LINE
  5
2768
  8
0
  6
CONTINUOUS
 62
     7
 10
16.000000000000139
 20
241.2199999999998
 30
0.0
 11
16.000000000000139
 21
233.7799999999998
 31
0.0
  0
ARC
  5
2769
  8
0
  6
CONTINUOUS
 62
     7
 10
20.000000000000139
 20
246.4999999999998
 30
0.0
 40
1.0
 50
90.0
 51
180.0
  0
LINE
  5
276A
  8
0
  6
CONTINUOUS
 62
     7
 10
129.00000000000011
 20
242.2499999999998
 30
0.0
 11
129.00000000000011
 21
232.7499999999998
 31
0.0
  0
LINE
  5
276B
  8
0
  6
CONTINUOUS
 62
     7
 10
129.00000000000011
 20
242.2499999999998
 30
0.0
 11
126.0000000000001
 21
242.2499999999998
 31
0.0
  0
LINE
  5
276C
  8
0
  6
CONTINUOUS
 62
     7
 10
129.00000000000011
 20
232.7499999999998
 30
0.0
 11
126.0000000000001
 21
232.7499999999998
 31
0.0
  0
LINE
  5
276D
  8
0
  6
CONTINUOUS
 62
     7
 10
130.00000000000011
 20
240.4999999999998
 30
0.0
 11
129.00000000000011
 21
240.4999999999998
 31
0.0
  0
LINE
  5
276E
  8
0
  6
CONTINUOUS
 62
     7
 10
16.000000000000149
 20
240.4999999999998
 30
0.0
 11
15.00000000000014
 21
240.4999999999998
 31
0.0
  0
LINE
  5
276F
  8
0
  6
CONTINUOUS
 62
     7
 10
130.00000000000011
 20
234.4999999999998
 30
0.0
 11
129.00000000000011
 21
234.4999999999998
 31
0.0
  0
LINE
  5
2770
  8
0
  6
CONTINUOUS
 62
     7
 10
16.000000000000149
 20
234.4999999999998
 30
0.0
 11
15.00000000000013
 21
234.4999999999998
 31
0.0
  0
LINE
  5
2771
  8
0
  6
CONTINUOUS
 62
     7
 10
126.0000000000001
 20
246.4999999999998
 30
0.0
 11
126.0000000000001
 21
228.4999999999998
 31
0.0
  0
ARC
  5
2772
  8
0
  6
CONTINUOUS
 62
     7
 10
125.0000000000001
 20
228.4999999999998
 30
0.0
 40
1.0
 50
270.0
 51
0.0
  0
ARC
  5
2773
  8
0
  6
CONTINUOUS
 62
     7
 10
125.0000000000001
 20
246.4999999999998
 30
0.0
 40
1.0
 50
0.0
 51
90.0
  0
LINE
  5
2774
  8
CENTER
  6
CENTER
 62
     1
 10
13.000000000000171
 20
262.49999999999977
 30
0.0
 11
132.0000000000002
 21
262.49999999999977
 31
0.0
  0
LINE
  5
2775
  8
0
  6
CONTINUOUS
 62
     7
 10
20.000000000000171
 20
272.49999999999977
 30
0.0
 11
125.0000000000001
 21
272.49999999999977
 31
0.0
  0
LINE
  5
2776
  8
0
  6
CONTINUOUS
 62
     7
 10
20.000000000000171
 20
252.4999999999998
 30
0.0
 11
125.0000000000001
 21
252.4999999999998
 31
0.0
  0
LINE
  5
2777
  8
0
  6
CONTINUOUS
 62
     7
 10
19.000000000000171
 20
253.4999999999998
 30
0.0
 11
19.000000000000171
 21
271.49999999999977
 31
0.0
  0
ARC
  5
2778
  8
0
  6
CONTINUOUS
 62
     7
 10
20.000000000000171
 20
253.4999999999998
 30
0.0
 40
1.0
 50
180.0
 51
270.0
  0
LINE
  5
2779
  8
0
  6
CONTINUOUS
 62
     7
 10
19.000000000000171
 20
258.77999999999969
 30
0.0
 11
16.000000000000171
 21
258.77999999999969
 31
0.0
  0
LINE
  5
277A
  8
0
  6
CONTINUOUS
 62
     7
 10
19.000000000000171
 20
266.2199999999998
 30
0.0
 11
16.000000000000171
 21
266.2199999999998
 31
0.0
  0
LINE
  5
277B
  8
0
  6
CONTINUOUS
 62
     7
 10
16.000000000000171
 20
266.2199999999998
 30
0.0
 11
16.000000000000171
 21
258.77999999999969
 31
0.0
  0
ARC
  5
277C
  8
0
  6
CONTINUOUS
 62
     7
 10
20.000000000000171
 20
271.49999999999977
 30
0.0
 40
1.0
 50
90.0
 51
180.0
  0
LINE
  5
277D
  8
0
  6
CONTINUOUS
 62
     7
 10
129.0000000000002
 20
267.24999999999977
 30
0.0
 11
129.0000000000002
 21
257.74999999999977
 31
0.0
  0
LINE
  5
277E
  8
0
  6
CONTINUOUS
 62
     7
 10
129.0000000000002
 20
267.24999999999977
 30
0.0
 11
126.0000000000002
 21
267.24999999999977
 31
0.0
  0
LINE
  5
277F
  8
0
  6
CONTINUOUS
 62
     7
 10
129.0000000000002
 20
257.74999999999977
 30
0.0
 11
126.0000000000002
 21
257.74999999999977
 31
0.0
  0
LINE
  5
2780
  8
0
  6
CONTINUOUS
 62
     7
 10
130.0000000000002
 20
265.49999999999977
 30
0.0
 11
129.0000000000002
 21
265.49999999999977
 31
0.0
  0
LINE
  5
2781
  8
0
  6
CONTINUOUS
 62
     7
 10
16.000000000000181
 20
265.49999999999977
 30
0.0
 11
15.000000000000171
 21
265.49999999999977
 31
0.0
  0
LINE
  5
2782
  8
0
  6
CONTINUOUS
 62
     7
 10
130.0000000000002
 20
259.49999999999977
 30
0.0
 11
129.0000000000002
 21
259.49999999999977
 31
0.0
  0
LINE
  5
2783
  8
0
  6
CONTINUOUS
 62
     7
 10
16.000000000000181
 20
259.49999999999977
 30
0.0
 11
15.00000000000016
 21
259.49999999999977
 31
0.0
  0
LINE
  5
2784
  8
0
  6
CONTINUOUS
 62
     7
 10
126.0000000000002
 20
271.49999999999977
 30
0.0
 11
126.0000000000002
 21
253.4999999999998
 31
0.0
  0
ARC
  5
2785
  8
0
  6
CONTINUOUS
 62
     7
 10
125.0000000000001
 20
253.4999999999998
 30
0.0
 40
1.0
 50
270.0
 51
0.0
  0
ARC
  5
2786
  8
0
  6
CONTINUOUS
 62
     7
 10
125.0000000000001
 20
271.49999999999977
 30
0.0
 40
1.0
 50
0.0
 51
90.0
  0
LINE
  5
2787
  8
0
  6
CONTINUOUS
 62
     7
 10
20.000000000000171
 20
272.49999999999977
 30
0.0
 11
125.0000000000001
 21
272.49999999999977
 31
0.0
  0
LINE
  5
2788
  8
0
  6
CONTINUOUS
 62
     7
 10
20.000000000000171
 20
252.4999999999998
 30
0.0
 11
125.0000000000001
 21
252.4999999999998
 31
0.0
  0
LINE
  5
2789
  8
0
  6
CONTINUOUS
 62
     7
 10
19.000000000000171
 20
253.4999999999998
 30
0.0
 11
19.000000000000171
 21
271.49999999999977
 31
0.0
  0
ARC
  5
278A
  8
0
  6
CONTINUOUS
 62
     7
 10
20.000000000000171
 20
253.4999999999998
 30
0.0
 40
1.0
 50
180.0
 51
270.0
  0
LINE
  5
278B
  8
0
  6
CONTINUOUS
 62
     7
 10
19.000000000000171
 20
258.77999999999969
 30
0.0
 11
16.000000000000171
 21
258.77999999999969
 31
0.0
  0
LINE
  5
278C
  8
0
  6
CONTINUOUS
 62
     7
 10
19.000000000000171
 20
266.2199999999998
 30
0.0
 11
16.000000000000171
 21
266.2199999999998
 31
0.0
  0
LINE
  5
278D
  8
0
  6
CONTINUOUS
 62
     7
 10
16.000000000000171
 20
266.2199999999998
 30
0.0
 11
16.000000000000171
 21
258.77999999999969
 31
0.0
  0
ARC
  5
278E
  8
0
  6
CONTINUOUS
 62
     7
 10
20.000000000000171
 20
271.49999999999977
 30
0.0
 40
1.0
 50
90.0
 51
180.0
  0
LINE
  5
278F
  8
0
  6
CONTINUOUS
 62
     7
 10
129.0000000000002
 20
267.24999999999977
 30
0.0
 11
129.0000000000002
 21
257.74999999999977
 31
0.0
  0
LINE
  5
2790
  8
0
  6
CONTINUOUS
 62
     7
 10
129.0000000000002
 20
267.24999999999977
 30
0.0
 11
126.0000000000002
 21
267.24999999999977
 31
0.0
  0
LINE
  5
2791
  8
0
  6
CONTINUOUS
 62
     7
 10
129.0000000000002
 20
257.74999999999977
 30
0.0
 11
126.0000000000002
 21
257.74999999999977
 31
0.0
  0
LINE
  5
2792
  8
0
  6
CONTINUOUS
 62
     7
 10
130.0000000000002
 20
265.49999999999977
 30
0.0
 11
129.0000000000002
 21
265.49999999999977
 31
0.0
  0
LINE
  5
2793
  8
0
  6
CONTINUOUS
 62
     7
 10
16.000000000000181
 20
265.49999999999977
 30
0.0
 11
15.000000000000171
 21
265.49999999999977
 31
0.0
  0
LINE
  5
2794
  8
0
  6
CONTINUOUS
 62
     7
 10
130.0000000000002
 20
259.49999999999977
 30
0.0
 11
129.0000000000002
 21
259.49999999999977
 31
0.0
  0
LINE
  5
2795
  8
0
  6
CONTINUOUS
 62
     7
 10
16.000000000000181
 20
259.49999999999977
 30
0.0
 11
15.00000000000016
 21
259.49999999999977
 31
0.0
  0
LINE
  5
2796
  8
0
  6
CONTINUOUS
 62
     7
 10
126.0000000000002
 20
271.49999999999977
 30
0.0
 11
126.0000000000002
 21
253.4999999999998
 31
0.0
  0
ARC
  5
2797
  8
0
  6
CONTINUOUS
 62
     7
 10
125.0000000000001
 20
253.4999999999998
 30
0.0
 40
1.0
 50
270.0
 51
0.0
  0
ARC
  5
2798
  8
0
  6
CONTINUOUS
 62
     7
 10
125.0000000000001
 20
271.49999999999977
 30
0.0
 40
1.0
 50
0.0
 51
90.0
  0
LINE
  5
2799
  8
CENTER
  6
CENTER
 62
     1
 10
13.000000000000229
 20
287.49999999999972
 30
0.0
 11
132.0000000000002
 21
287.49999999999972
 31
0.0
  0
LINE
  5
279A
  8
0
  6
CONTINUOUS
 62
     7
 10
20.000000000000231
 20
297.49999999999972
 30
0.0
 11
125.0000000000002
 21
297.49999999999972
 31
0.0
  0
LINE
  5
279B
  8
0
  6
CONTINUOUS
 62
     7
 10
20.000000000000231
 20
277.49999999999972
 30
0.0
 11
125.0000000000002
 21
277.49999999999972
 31
0.0
  0
LINE
  5
279C
  8
0
  6
CONTINUOUS
 62
     7
 10
19.000000000000231
 20
278.49999999999972
 30
0.0
 11
19.000000000000231
 21
296.49999999999972
 31
0.0
  0
ARC
  5
279D
  8
0
  6
CONTINUOUS
 62
     7
 10
20.000000000000231
 20
278.49999999999972
 30
0.0
 40
1.0
 50
180.0
 51
270.0
  0
LINE
  5
279E
  8
0
  6
CONTINUOUS
 62
     7
 10
19.000000000000231
 20
283.77999999999969
 30
0.0
 11
16.00000000000022
 21
283.77999999999969
 31
0.0
  0
LINE
  5
279F
  8
0
  6
CONTINUOUS
 62
     7
 10
19.000000000000231
 20
291.21999999999969
 30
0.0
 11
16.00000000000022
 21
291.21999999999969
 31
0.0
  0
LINE
  5
27A0
  8
0
  6
CONTINUOUS
 62
     7
 10
16.00000000000022
 20
291.21999999999969
 30
0.0
 11
16.00000000000022
 21
283.77999999999969
 31
0.0
  0
ARC
  5
27A1
  8
0
  6
CONTINUOUS
 62
     7
 10
20.000000000000231
 20
296.49999999999972
 30
0.0
 40
1.0
 50
90.0
 51
180.0
  0
LINE
  5
27A2
  8
0
  6
CONTINUOUS
 62
     7
 10
129.0000000000002
 20
292.24999999999972
 30
0.0
 11
129.0000000000002
 21
282.74999999999972
 31
0.0
  0
LINE
  5
27A3
  8
0
  6
CONTINUOUS
 62
     7
 10
129.0000000000002
 20
292.24999999999972
 30
0.0
 11
126.0000000000002
 21
292.24999999999972
 31
0.0
  0
LINE
  5
27A4
  8
0
  6
CONTINUOUS
 62
     7
 10
129.0000000000002
 20
282.74999999999972
 30
0.0
 11
126.0000000000002
 21
282.74999999999972
 31
0.0
  0
LINE
  5
27A5
  8
0
  6
CONTINUOUS
 62
     7
 10
130.0000000000002
 20
290.49999999999972
 30
0.0
 11
129.0000000000002
 21
290.49999999999972
 31
0.0
  0
LINE
  5
27A6
  8
0
  6
CONTINUOUS
 62
     7
 10
16.000000000000231
 20
290.49999999999972
 30
0.0
 11
15.000000000000229
 21
290.49999999999972
 31
0.0
  0
LINE
  5
27A7
  8
0
  6
CONTINUOUS
 62
     7
 10
130.0000000000002
 20
284.49999999999972
 30
0.0
 11
129.0000000000002
 21
284.49999999999972
 31
0.0
  0
LINE
  5
27A8
  8
0
  6
CONTINUOUS
 62
     7
 10
16.000000000000231
 20
284.49999999999972
 30
0.0
 11
15.00000000000022
 21
284.49999999999972
 31
0.0
  0
LINE
  5
27A9
  8
0
  6
CONTINUOUS
 62
     7
 10
126.0000000000002
 20
296.49999999999972
 30
0.0
 11
126.0000000000002
 21
278.49999999999972
 31
0.0
  0
ARC
  5
27AA
  8
0
  6
CONTINUOUS
 62
     7
 10
125.0000000000002
 20
278.49999999999972
 30
0.0
 40
1.0
 50
270.0
 51
0.0
  0
ARC
  5
27AB
  8
0
  6
CONTINUOUS
 62
     7
 10
125.0000000000002
 20
296.49999999999972
 30
0.0
 40
1.0
 50
0.0
 51
90.0
  0
LINE
  5
27AC
  8
0
  6
CONTINUOUS
 62
     7
 10
20.000000000000231
 20
297.49999999999972
 30
0.0
 11
125.0000000000002
 21
297.49999999999972
 31
0.0
  0
LINE
  5
27AD
  8
0
  6
CONTINUOUS
 62
     7
 10
20.000000000000231
 20
277.49999999999972
 30
0.0
 11
125.0000000000002
 21
277.49999999999972
 31
0.0
  0
LINE
  5
27AE
  8
0
  6
CONTINUOUS
 62
     7
 10
19.000000000000231
 20
278.49999999999972
 30
0.0
 11
19.000000000000231
 21
296.49999999999972
 31
0.0
  0
ARC
  5
27AF
  8
0
  6
CONTINUOUS
 62
     7
 10
20.000000000000231
 20
278.49999999999972
 30
0.0
 40
1.0
 50
180.0
 51
270.0
  0
LINE
  5
27B0
  8
0
  6
CONTINUOUS
 62
     7
 10
19.000000000000231
 20
283.77999999999969
 30
0.0
 11
16.00000000000022
 21
283.77999999999969
 31
0.0
  0
LINE
  5
27B1
  8
0
  6
CONTINUOUS
 62
     7
 10
19.000000000000231
 20
291.21999999999969
 30
0.0
 11
16.00000000000022
 21
291.21999999999969
 31
0.0
  0
LINE
  5
27B2
  8
0
  6
CONTINUOUS
 62
     7
 10
16.00000000000022
 20
291.21999999999969
 30
0.0
 11
16.00000000000022
 21
283.77999999999969
 31
0.0
  0
ARC
  5
27B3
  8
0
  6
CONTINUOUS
 62
     7
 10
20.000000000000231
 20
296.49999999999972
 30
0.0
 40
1.0
 50
90.0
 51
180.0
  0
LINE
  5
27B4
  8
0
  6
CONTINUOUS
 62
     7
 10
129.0000000000002
 20
292.24999999999972
 30
0.0
 11
129.0000000000002
 21
282.74999999999972
 31
0.0
  0
LINE
  5
27B5
  8
0
  6
CONTINUOUS
 62
     7
 10
129.0000000000002
 20
292.24999999999972
 30
0.0
 11
126.0000000000002
 21
292.24999999999972
 31
0.0
  0
LINE
  5
27B6
  8
0
  6
CONTINUOUS
 62
     7
 10
129.0000000000002
 20
282.74999999999972
 30
0.0
 11
126.0000000000002
 21
282.74999999999972
 31
0.0
  0
LINE
  5
27B7
  8
0
  6
CONTINUOUS
 62
     7
 10
130.0000000000002
 20
290.49999999999972
 30
0.0
 11
129.0000000000002
 21
290.49999999999972
 31
0.0
  0
LINE
  5
27B8
  8
0
  6
CONTINUOUS
 62
     7
 10
16.000000000000231
 20
290.49999999999972
 30
0.0
 11
15.000000000000229
 21
290.49999999999972
 31
0.0
  0
LINE
  5
27B9
  8
0
  6
CONTINUOUS
 62
     7
 10
130.0000000000002
 20
284.49999999999972
 30
0.0
 11
129.0000000000002
 21
284.49999999999972
 31
0.0
  0
LINE
  5
27BA
  8
0
  6
CONTINUOUS
 62
     7
 10
16.000000000000231
 20
284.49999999999972
 30
0.0
 11
15.00000000000022
 21
284.49999999999972
 31
0.0
  0
LINE
  5
27BB
  8
0
  6
CONTINUOUS
 62
     7
 10
126.0000000000002
 20
296.49999999999972
 30
0.0
 11
126.0000000000002
 21
278.49999999999972
 31
0.0
  0
ARC
  5
27BC
  8
0
  6
CONTINUOUS
 62
     7
 10
125.0000000000002
 20
278.49999999999972
 30
0.0
 40
1.0
 50
270.0
 51
0.0
  0
ARC
  5
27BD
  8
0
  6
CONTINUOUS
 62
     7
 10
125.0000000000002
 20
296.49999999999972
 30
0.0
 40
1.0
 50
0.0
 51
90.0
  0
LINE
  5
27BE
  8
CENTER
  6
CENTER
 62
     1
 10
13.00000000000003
 20
112.5000000000001
 30
0.0
 11
132.0
 21
112.5000000000001
 31
0.0
  0
LINE
  5
27BF
  8
0
  6
CONTINUOUS
 62
     7
 10
20.000000000000028
 20
102.5000000000001
 30
0.0
 11
125.0
 21
102.5000000000001
 31
0.0
  0
LINE
  5
27C0
  8
0
  6
CONTINUOUS
 62
     7
 10
20.000000000000028
 20
122.5000000000001
 30
0.0
 11
125.0
 21
122.5000000000001
 31
0.0
  0
LINE
  5
27C1
  8
0
  6
CONTINUOUS
 62
     7
 10
19.000000000000028
 20
121.5000000000001
 30
0.0
 11
19.000000000000028
 21
103.5000000000001
 31
0.0
  0
ARC
  5
27C2
  8
0
  6
CONTINUOUS
 62
     7
 10
20.000000000000028
 20
121.5000000000001
 30
0.0
 40
1.0
 50
90.000000000000028
 51
180.0
  0
LINE
  5
27C3
  8
0
  6
CONTINUOUS
 62
     7
 10
19.000000000000028
 20
116.2200000000001
 30
0.0
 11
16.000000000000028
 21
116.2200000000001
 31
0.0
  0
LINE
  5
27C4
  8
0
  6
CONTINUOUS
 62
     7
 10
19.000000000000028
 20
108.7800000000001
 30
0.0
 11
16.000000000000028
 21
108.7800000000001
 31
0.0
  0
LINE
  5
27C5
  8
0
  6
CONTINUOUS
 62
     7
 10
16.000000000000028
 20
108.7800000000001
 30
0.0
 11
16.000000000000028
 21
116.2200000000001
 31
0.0
  0
ARC
  5
27C6
  8
0
  6
CONTINUOUS
 62
     7
 10
20.000000000000028
 20
103.5000000000001
 30
0.0
 40
1.0
 50
180.0
 51
270.0
  0
LINE
  5
27C7
  8
0
  6
CONTINUOUS
 62
     7
 10
129.0
 20
107.7500000000001
 30
0.0
 11
129.0
 21
117.2500000000001
 31
0.0
  0
LINE
  5
27C8
  8
0
  6
CONTINUOUS
 62
     7
 10
129.0
 20
107.7500000000001
 30
0.0
 11
126.0
 21
107.7500000000001
 31
0.0
  0
LINE
  5
27C9
  8
0
  6
CONTINUOUS
 62
     7
 10
129.0
 20
117.2500000000001
 30
0.0
 11
126.0
 21
117.2500000000001
 31
0.0
  0
LINE
  5
27CA
  8
0
  6
CONTINUOUS
 62
     7
 10
130.0
 20
109.5000000000001
 30
0.0
 11
129.0
 21
109.5000000000001
 31
0.0
  0
LINE
  5
27CB
  8
0
  6
CONTINUOUS
 62
     7
 10
16.000000000000028
 20
109.5000000000001
 30
0.0
 11
15.00000000000003
 21
109.5000000000001
 31
0.0
  0
LINE
  5
27CC
  8
0
  6
CONTINUOUS
 62
     7
 10
130.0
 20
115.5000000000001
 30
0.0
 11
129.0
 21
115.5000000000001
 31
0.0
  0
LINE
  5
27CD
  8
0
  6
CONTINUOUS
 62
     7
 10
16.000000000000028
 20
115.5000000000001
 30
0.0
 11
15.00000000000002
 21
115.5000000000001
 31
0.0
  0
LINE
  5
27CE
  8
0
  6
CONTINUOUS
 62
     7
 10
126.0
 20
103.5000000000001
 30
0.0
 11
126.0
 21
121.5000000000001
 31
0.0
  0
ARC
  5
27CF
  8
0
  6
CONTINUOUS
 62
     7
 10
125.0
 20
121.5000000000001
 30
0.0
 40
1.0
 50
0.0
 51
90.000000000000028
  0
ARC
  5
27D0
  8
0
  6
CONTINUOUS
 62
     7
 10
125.0
 20
103.5000000000001
 30
0.0
 40
1.0
 50
270.0
 51
0.0
  0
LINE
  5
27D1
  8
0
  6
CONTINUOUS
 62
     7
 10
20.000000000000028
 20
102.5000000000001
 30
0.0
 11
125.0
 21
102.5000000000001
 31
0.0
  0
LINE
  5
27D2
  8
0
  6
CONTINUOUS
 62
     7
 10
20.000000000000028
 20
122.5000000000001
 30
0.0
 11
125.0
 21
122.5000000000001
 31
0.0
  0
LINE
  5
27D3
  8
0
  6
CONTINUOUS
 62
     7
 10
19.000000000000028
 20
121.5000000000001
 30
0.0
 11
19.000000000000028
 21
103.5000000000001
 31
0.0
  0
ARC
  5
27D4
  8
0
  6
CONTINUOUS
 62
     7
 10
20.000000000000028
 20
121.5000000000001
 30
0.0
 40
1.0
 50
90.000000000000028
 51
180.0
  0
LINE
  5
27D5
  8
0
  6
CONTINUOUS
 62
     7
 10
19.000000000000028
 20
116.2200000000001
 30
0.0
 11
16.000000000000028
 21
116.2200000000001
 31
0.0
  0
LINE
  5
27D6
  8
0
  6
CONTINUOUS
 62
     7
 10
19.000000000000028
 20
108.7800000000001
 30
0.0
 11
16.000000000000028
 21
108.7800000000001
 31
0.0
  0
LINE
  5
27D7
  8
0
  6
CONTINUOUS
 62
     7
 10
16.000000000000028
 20
108.7800000000001
 30
0.0
 11
16.000000000000028
 21
116.2200000000001
 31
0.0
  0
ARC
  5
27D8
  8
0
  6
CONTINUOUS
 62
     7
 10
20.000000000000028
 20
103.5000000000001
 30
0.0
 40
1.0
 50
180.0
 51
270.0
  0
LINE
  5
27D9
  8
0
  6
CONTINUOUS
 62
     7
 10
129.0
 20
107.7500000000001
 30
0.0
 11
129.0
 21
117.2500000000001
 31
0.0
  0
LINE
  5
27DA
  8
0
  6
CONTINUOUS
 62
     7
 10
129.0
 20
107.7500000000001
 30
0.0
 11
126.0
 21
107.7500000000001
 31
0.0
  0
LINE
  5
27DB
  8
0
  6
CONTINUOUS
 62
     7
 10
129.0
 20
117.2500000000001
 30
0.0
 11
126.0
 21
117.2500000000001
 31
0.0
  0
LINE
  5
27DC
  8
0
  6
CONTINUOUS
 62
     7
 10
130.0
 20
109.5000000000001
 30
0.0
 11
129.0
 21
109.5000000000001
 31
0.0
  0
LINE
  5
27DD
  8
0
  6
CONTINUOUS
 62
     7
 10
16.000000000000028
 20
109.5000000000001
 30
0.0
 11
15.00000000000003
 21
109.5000000000001
 31
0.0
  0
LINE
  5
27DE
  8
0
  6
CONTINUOUS
 62
     7
 10
130.0
 20
115.5000000000001
 30
0.0
 11
129.0
 21
115.5000000000001
 31
0.0
  0
LINE
  5
27DF
  8
0
  6
CONTINUOUS
 62
     7
 10
16.000000000000028
 20
115.5000000000001
 30
0.0
 11
15.00000000000002
 21
115.5000000000001
 31
0.0
  0
LINE
  5
27E0
  8
0
  6
CONTINUOUS
 62
     7
 10
126.0
 20
103.5000000000001
 30
0.0
 11
126.0
 21
121.5000000000001
 31
0.0
  0
ARC
  5
27E1
  8
0
  6
CONTINUOUS
 62
     7
 10
125.0
 20
121.5000000000001
 30
0.0
 40
1.0
 50
0.0
 51
90.000000000000028
  0
ARC
  5
27E2
  8
0
  6
CONTINUOUS
 62
     7
 10
125.0
 20
103.5000000000001
 30
0.0
 40
1.0
 50
270.0
 51
0.0
  0
LINE
  5
27E3
  8
CENTER
  6
CENTER
 62
     1
 10
13.000000000000369
 20
337.50000000000023
 30
0.0
 11
132.00000000000031
 21
337.4999999999996
 31
0.0
  0
LINE
  5
27E4
  8
0
  6
CONTINUOUS
 62
     7
 10
20.000000000000309
 20
327.50000000000023
 30
0.0
 11
125.0000000000003
 21
327.49999999999949
 31
0.0
  0
LINE
  5
27E5
  8
0
  6
CONTINUOUS
 62
     7
 10
20.00000000000043
 20
347.50000000000023
 30
0.0
 11
125.0000000000004
 21
347.4999999999996
 31
0.0
  0
LINE
  5
27E6
  8
0
  6
CONTINUOUS
 62
     7
 10
19.000000000000419
 20
346.50000000000023
 30
0.0
 11
19.00000000000032
 21
328.50000000000023
 31
0.0
  0
ARC
  5
27E7
  8
0
  6
CONTINUOUS
 62
     7
 10
20.000000000000419
 20
346.50000000000023
 30
0.0
 40
1.0
 50
89.999999999999687
 51
180.0
  0
LINE
  5
27E8
  8
0
  6
CONTINUOUS
 62
     7
 10
19.000000000000391
 20
341.2200000000002
 30
0.0
 11
16.000000000000391
 21
341.2200000000002
 31
0.0
  0
LINE
  5
27E9
  8
0
  6
CONTINUOUS
 62
     7
 10
19.000000000000352
 20
333.7800000000002
 30
0.0
 11
16.000000000000352
 21
333.7800000000002
 31
0.0
  0
LINE
  5
27EA
  8
0
  6
CONTINUOUS
 62
     7
 10
16.000000000000352
 20
333.7800000000002
 30
0.0
 11
16.000000000000391
 21
341.2200000000002
 31
0.0
  0
ARC
  5
27EB
  8
0
  6
CONTINUOUS
 62
     7
 10
20.00000000000032
 20
328.50000000000023
 30
0.0
 40
1.0
 50
180.0
 51
269.99999999999972
  0
LINE
  5
27EC
  8
0
  6
CONTINUOUS
 62
     7
 10
129.00000000000031
 20
332.7499999999996
 30
0.0
 11
129.0000000000004
 21
342.24999999999949
 31
0.0
  0
LINE
  5
27ED
  8
0
  6
CONTINUOUS
 62
     7
 10
129.00000000000031
 20
332.7499999999996
 30
0.0
 11
126.0000000000003
 21
332.7499999999996
 31
0.0
  0
LINE
  5
27EE
  8
0
  6
CONTINUOUS
 62
     7
 10
129.0000000000004
 20
342.24999999999949
 30
0.0
 11
126.0000000000004
 21
342.24999999999949
 31
0.0
  0
LINE
  5
27EF
  8
0
  6
CONTINUOUS
 62
     7
 10
130.00000000000031
 20
334.49999999999949
 30
0.0
 11
129.00000000000031
 21
334.49999999999949
 31
0.0
  0
LINE
  5
27F0
  8
0
  6
CONTINUOUS
 62
     7
 10
16.000000000000359
 20
334.50000000000023
 30
0.0
 11
15.00000000000035
 21
334.50000000000023
 31
0.0
  0
LINE
  5
27F1
  8
0
  6
CONTINUOUS
 62
     7
 10
130.0000000000004
 20
340.49999999999949
 30
0.0
 11
129.0000000000004
 21
340.49999999999949
 31
0.0
  0
LINE
  5
27F2
  8
0
  6
CONTINUOUS
 62
     7
 10
16.000000000000391
 20
340.50000000000023
 30
0.0
 11
15.00000000000038
 21
340.50000000000023
 31
0.0
  0
LINE
  5
27F3
  8
0
  6
CONTINUOUS
 62
     7
 10
126.0000000000003
 20
328.4999999999996
 30
0.0
 11
126.0000000000004
 21
346.49999999999949
 31
0.0
  0
ARC
  5
27F4
  8
0
  6
CONTINUOUS
 62
     7
 10
125.0000000000004
 20
346.49999999999949
 30
0.0
 40
1.0
 50
0.0
 51
89.999999999999687
  0
ARC
  5
27F5
  8
0
  6
CONTINUOUS
 62
     7
 10
125.0000000000003
 20
328.4999999999996
 30
0.0
 40
1.0
 50
269.99999999999972
 51
0.0
  0
LINE
  5
27F6
  8
0
  6
CONTINUOUS
 62
     7
 10
20.000000000000309
 20
327.50000000000023
 30
0.0
 11
125.0000000000003
 21
327.49999999999949
 31
0.0
  0
LINE
  5
27F7
  8
0
  6
CONTINUOUS
 62
     7
 10
20.00000000000043
 20
347.50000000000023
 30
0.0
 11
125.0000000000004
 21
347.4999999999996
 31
0.0
  0
LINE
  5
27F8
  8
0
  6
CONTINUOUS
 62
     7
 10
19.000000000000419
 20
346.50000000000023
 30
0.0
 11
19.00000000000032
 21
328.50000000000023
 31
0.0
  0
ARC
  5
27F9
  8
0
  6
CONTINUOUS
 62
     7
 10
20.000000000000419
 20
346.50000000000023
 30
0.0
 40
1.0
 50
89.999999999999687
 51
180.0
  0
LINE
  5
27FA
  8
0
  6
CONTINUOUS
 62
     7
 10
19.000000000000391
 20
341.2200000000002
 30
0.0
 11
16.000000000000391
 21
341.2200000000002
 31
0.0
  0
LINE
  5
27FB
  8
0
  6
CONTINUOUS
 62
     7
 10
19.000000000000352
 20
333.7800000000002
 30
0.0
 11
16.000000000000352
 21
333.7800000000002
 31
0.0
  0
LINE
  5
27FC
  8
0
  6
CONTINUOUS
 62
     7
 10
16.000000000000352
 20
333.7800000000002
 30
0.0
 11
16.000000000000391
 21
341.2200000000002
 31
0.0
  0
ARC
  5
27FD
  8
0
  6
CONTINUOUS
 62
     7
 10
20.00000000000032
 20
328.50000000000023
 30
0.0
 40
1.0
 50
180.0
 51
269.99999999999972
  0
LINE
  5
27FE
  8
0
  6
CONTINUOUS
 62
     7
 10
129.00000000000031
 20
332.7499999999996
 30
0.0
 11
129.0000000000004
 21
342.24999999999949
 31
0.0
  0
LINE
  5
27FF
  8
0
  6
CONTINUOUS
 62
     7
 10
129.00000000000031
 20
332.7499999999996
 30
0.0
 11
126.0000000000003
 21
332.7499999999996
 31
0.0
  0
LINE
  5
2800
  8
0
  6
CONTINUOUS
 62
     7
 10
129.0000000000004
 20
342.24999999999949
 30
0.0
 11
126.0000000000004
 21
342.24999999999949
 31
0.0
  0
LINE
  5
2801
  8
0
  6
CONTINUOUS
 62
     7
 10
130.00000000000031
 20
334.49999999999949
 30
0.0
 11
129.00000000000031
 21
334.49999999999949
 31
0.0
  0
LINE
  5
2802
  8
0
  6
CONTINUOUS
 62
     7
 10
16.000000000000359
 20
334.50000000000023
 30
0.0
 11
15.00000000000035
 21
334.50000000000023
 31
0.0
  0
LINE
  5
2803
  8
0
  6
CONTINUOUS
 62
     7
 10
130.0000000000004
 20
340.49999999999949
 30
0.0
 11
129.0000000000004
 21
340.49999999999949
 31
0.0
  0
LINE
  5
2804
  8
0
  6
CONTINUOUS
 62
     7
 10
16.000000000000391
 20
340.50000000000023
 30
0.0
 11
15.00000000000038
 21
340.50000000000023
 31
0.0
  0
LINE
  5
2805
  8
0
  6
CONTINUOUS
 62
     7
 10
126.0000000000003
 20
328.4999999999996
 30
0.0
 11
126.0000000000004
 21
346.49999999999949
 31
0.0
  0
ARC
  5
2806
  8
0
  6
CONTINUOUS
 62
     7
 10
125.0000000000004
 20
346.49999999999949
 30
0.0
 40
1.0
 50
0.0
 51
89.999999999999687
  0
ARC
  5
2807
  8
0
  6
CONTINUOUS
 62
     7
 10
125.0000000000003
 20
328.4999999999996
 30
0.0
 40
1.0
 50
269.99999999999972
 51
0.0
  0
ENDSEC
  0
EOF
