  0
SECTION
  2
HEADER
  9
$ACADVER
  1
AC1009
  9
$INSBASE
 10
0.0
 20
0.0
 30
0.0
  9
$EXTMIN
 10
205.95697855230259
 20
109.9895289845575
 30
-0.0015258207003583
  9
$EXTMAX
 10
212.5202098071934
 20
113.5034011741681
 30
0.0000000349246037
  9
$LIMMIN
 10
0.0
 20
0.0
  9
$LIMMAX
 10
12.0
 20
9.0
  9
$ORTHOMODE
 70
     1
  9
$REGENMODE
 70
     1
  9
$FILLMODE
 70
     1
  9
$QTEXTMODE
 70
     0
  9
$MIRRTEXT
 70
     0
  9
$DRAGMODE
 70
     2
  9
$LTSCALE
 40
1.0
  9
$OSMODE
 70
     0
  9
$ATTMODE
 70
     1
  9
$TEXTSIZE
 40
0.2
  9
$TRACEWID
 40
0.05
  9
$TEXTSTYLE
  7
STANDARD
  9
$CLAYER
  8
0
  9
$CELTYPE
  6
CONTINUOUS
  9
$CECOLOR
 62
   256
  9
$DIMSCALE
 40
1.0
  9
$DIMASZ
 40
0.18
  9
$DIMEXO
 40
0.0625
  9
$DIMDLI
 40
0.38
  9
$DIMRND
 40
0.0
  9
$DIMDLE
 40
0.0
  9
$DIMEXE
 40
0.18
  9
$DIMTP
 40
0.0
  9
$DIMTM
 40
0.0
  9
$DIMTXT
 40
0.18
  9
$DIMCEN
 40
0.09
  9
$DIMTSZ
 40
0.0
  9
$DIMTOL
 70
     0
  9
$DIMLIM
 70
     0
  9
$DIMTIH
 70
     1
  9
$DIMTOH
 70
     1
  9
$DIMSE1
 70
     0
  9
$DIMSE2
 70
     0
  9
$DIMTAD
 70
     0
  9
$DIMZIN
 70
     0
  9
$DIMBLK
  1

  9
$DIMASO
 70
     1
  9
$DIMSHO
 70
     1
  9
$DIMPOST
  1

  9
$DIMAPOST
  1

  9
$DIMALT
 70
     0
  9
$DIMALTD
 70
     2
  9
$DIMALTF
 40
25.399999999999999
  9
$DIMLFAC
 40
1.0
  9
$DIMTOFL
 70
     0
  9
$DIMTVP
 40
0.0
  9
$DIMTIX
 70
     0
  9
$DIMSOXD
 70
     0
  9
$DIMSAH
 70
     0
  9
$DIMBLK1
  1

  9
$DIMBLK2
  1

  9
$DIMSTYLE
  2
STANDARD
  9
$DIMCLRD
 70
     0
  9
$DIMCLRE
 70
     0
  9
$DIMCLRT
 70
     0
  9
$DIMTFAC
 40
1.0
  9
$DIMGAP
 40
0.09
  9
$LUNITS
 70
     2
  9
$LUPREC
 70
     4
  9
$SKETCHINC
 40
0.1
  9
$FILLETRAD
 40
0.0
  9
$AUNITS
 70
     0
  9
$AUPREC
 70
     0
  9
$MENU
  1
.
  9
$ELEVATION
 40
0.0
  9
$PELEVATION
 40
0.0
  9
$THICKNESS
 40
0.0
  9
$LIMCHECK
 70
     0
  9
$BLIPMODE
 70
     0
  9
$CHAMFERA
 40
0.0
  9
$CHAMFERB
 40
0.0
  9
$SKPOLY
 70
     0
  9
$TDCREATE
 40
2456832.625280926
  9
$TDUPDATE
 40
2456833.6093930681
  9
$TDINDWG
 40
0.0545947569
  9
$TDUSRTIMER
 40
0.054594537
  9
$USRTIMER
 70
     1
  9
$ANGBASE
 50
0.0
  9
$ANGDIR
 70
     0
  9
$PDMODE
 70
     0
  9
$PDSIZE
 40
0.0
  9
$PLINEWID
 40
0.0
  9
$COORDS
 70
     1
  9
$SPLFRAME
 70
     0
  9
$SPLINETYPE
 70
     6
  9
$SPLINESEGS
 70
     8
  9
$ATTDIA
 70
     1
  9
$ATTREQ
 70
     1
  9
$HANDLING
 70
     1
  9
$HANDSEED
  5
1F63
  9
$SURFTAB1
 70
     6
  9
$SURFTAB2
 70
     6
  9
$SURFTYPE
 70
     6
  9
$SURFU
 70
     6
  9
$SURFV
 70
     6
  9
$UCSNAME
  2

  9
$UCSORG
 10
205.99477083205079
 20
109.97536948235989
 30
0.0
  9
$UCSXDIR
 10
1.0
 20
0.0
 30
0.0
  9
$UCSYDIR
 10
0.0
 20
1.0
 30
0.0
  9
$PUCSNAME
  2

  9
$PUCSORG
 10
0.0
 20
0.0
 30
0.0
  9
$PUCSXDIR
 10
1.0
 20
0.0
 30
0.0
  9
$PUCSYDIR
 10
0.0
 20
1.0
 30
0.0
  9
$USERI1
 70
     0
  9
$USERI2
 70
     0
  9
$USERI3
 70
     0
  9
$USERI4
 70
     0
  9
$USERI5
 70
     0
  9
$USERR1
 40
0.0
  9
$USERR2
 40
0.0
  9
$USERR3
 40
0.0
  9
$USERR4
 40
0.0
  9
$USERR5
 40
0.0
  9
$WORLDVIEW
 70
     1
  9
$SHADEDGE
 70
     3
  9
$SHADEDIF
 70
    70
  9
$TILEMODE
 70
     1
  9
$MAXACTVP
 70
    64
  9
$PLIMCHECK
 70
     0
  9
$PEXTMIN
 10
1.0000000000000000E+020
 20
1.0000000000000000E+020
 30
1.0000000000000000E+020
  9
$PEXTMAX
 10
-1.0000000000000000E+020
 20
-1.0000000000000000E+020
 30
-1.0000000000000000E+020
  9
$PLIMMIN
 10
0.0
 20
0.0
  9
$PLIMMAX
 10
12.0
 20
9.0
  9
$UNITMODE
 70
     0
  9
$VISRETAIN
 70
     1
  9
$PLINEGEN
 70
     0
  9
$PSLTSCALE
 70
     1
  0
ENDSEC
  0
SECTION
  2
TABLES
  0
TABLE
  2
VPORT
 70
     1
  0
VPORT
  2
*ACTIVE
 70
     0
 10
0.0
 20
0.0
 11
1.0
 21
1.0
 12
106.2601049035967
 22
56.75170058708408
 13
0.0
 23
0.0
 14
1.0
 24
1.0
 15
0.0
 25
0.0
 16
0.0
 26
0.0
 36
1.0
 17
0.0
 27
0.0
 37
0.0
 40
114.47489961503121
 41
2.7057142857142851
 42
50.0
 43
0.0
 44
0.0
 50
0.0
 51
0.0
 71
     0
 72
   100
 73
     1
 74
     1
 75
     0
 76
     0
 77
     0
 78
     0
  0
ENDTAB
  0
TABLE
  2
LTYPE
 70
     9
  0
LTYPE
  2
CONTINUOUS
 70
     0
  3
Solid line
 72
    65
 73
     0
 40
0.0
  0
LTYPE
  2
HIDDEN
 70
     0
  3
Hidden __ __ __ __ __ __ __ __ __ __ __ __ __ _
 72
    65
 73
     2
 40
0.375
 49
0.25
 49
-0.125
  0
LTYPE
  2
PHANTOM2
 70
     0
  3
Phantom (.5x) ___ _ _ ___ _ _ ___ _ _ ___ _ _
 72
    65
 73
     6
 40
1.25
 49
0.625
 49
-0.125
 49
0.125
 49
-0.125
 49
0.125
 49
-0.125
  0
LTYPE
  2
CENTER
 70
     0
  3
Center ____ _ ____ _ ____ _ ____ _ ____ _ ____
 72
    65
 73
     4
 40
2.0
 49
1.25
 49
-0.25
 49
0.25
 49
-0.25
  0
LTYPE
  2
CENTER2
 70
     0
  3
Center (.5x) ___ _ ___ _ ___ _ ___ _ ___ _ ___
 72
    65
 73
     4
 40
1.125
 49
0.75
 49
-0.125
 49
0.125
 49
-0.125
  0
LTYPE
  2
HIDDEN2
 70
     0
  3
Hidden (.5x) _ _ _ _ _ _ _ _ _ _ _ _ _ _ _ _ _
 72
    65
 73
     2
 40
0.1875
 49
0.125
 49
-0.0625
  0
LTYPE
  2
ACANSTGB
 70
     0
  3
__ . . __ . .
 72
    65
 73
     6
 40
0.35433070866
 49
0.15748031496
 49
-0.03937007874
 49
0.03937007874
 49
-0.03937007874
 49
0.03937007874
 49
-0.03937007874
  0
LTYPE
  2
ACANSTGL
 70
     0
  3
_ _ _ _ _
 72
    65
 73
     2
 40
0.11811023622
 49
0.07874015748
 49
-0.03937007874
  0
ENDTAB
  0
TABLE
  2
LAYER
 70
     4
  0
LAYER
  2
0
 70
     0
 62
     7
  6
CONTINUOUS
  0
ENDTAB
  0
TABLE
  2
STYLE
 70
     4
  0
STYLE
  2
STANDARD
 70
     0
 40
0.0
 41
1.0
 50
0.0
 71
     0
 42
0.2
  3
txt
  4

  0
STYLE
  2
ACANSGDT
 70
     0
 40
0.0
 41
1.0
 50
0.0
 71
     0
 42
0.2
  3
amgdt.shx
  4

  0
ENDTAB
  0
TABLE
  2
VIEW
 70
     0
  0
ENDTAB
  0
TABLE
  2
UCS
 70
     0
  0
ENDTAB
  0
TABLE
  2
APPID
 70
    12
  0
APPID
  2
ACAD
 70
     0
  0
APPID
  2
ACADANNOTATIVE
 70
     0
  0
APPID
  2
MCAD_NO_VIS
 70
     0
  0
APPID
  2
ACAD_TEMP_GRAPHIC
 70
     0
  0
APPID
  2
ACATTRIBSERVICES
 70
     0
  0
APPID
  2
DESIGNERASSEMBLIES
 70
     0
  0
APPID
  2
ACAD_DSTYLE_DIMJAG
 70
     0
  0
APPID
  2
ACAD_DSTYLE_DIMBREAK
 70
     0
  0
APPID
  2
ACAD_NAV_VCDISPLAY
 70
     0
  0
APPID
  2
ACAD_MLEADERVER
 70
     0
  0
APPID
  2
ACAECLAYERSTANDARD
 70
     0
  0
APPID
  2
ACAD_EXEMPT_FROM_CAD_STANDARDS
 70
     0
  0
ENDTAB
  0
TABLE
  2
DIMSTYLE
 70
     9
  0
DIMSTYLE
  2
STANDARD
 70
     0
  3

  4

  5

  6

  7

 40
1.0
 41
0.18
 42
0.0625
 43
0.38
 44
0.18
 45
0.0
 46
0.0
 47
0.0
 48
0.0
140
0.18
141
0.09
142
0.0
143
25.399999999999999
144
1.0
145
0.0
146
1.0
147
0.09
 71
     0
 72
     0
 73
     1
 74
     1
 75
     0
 76
     0
 77
     0
 78
     0
170
     0
171
     2
172
     0
173
     0
174
     0
175
     0
176
     0
177
     0
178
     0
  0
DIMSTYLE
  2
AM_ANSI
 70
     0
  3

  4
mm
  5

  6

  7

 40
1.0
 41
0.12
 42
0.05
 43
0.5
 44
0.1
 45
0.0
 46
0.0
 47
0.1
 48
0.1
140
0.12
141
0.0
142
0.0
143
25.399999999999999
144
1.0
145
0.0
146
0.71
147
0.06
 71
     0
 72
     0
 73
     1
 74
     1
 75
     0
 76
     0
 77
     0
 78
     7
170
     0
171
     2
172
     0
173
     0
174
     0
175
     0
176
   256
177
   256
178
     2
  0
DIMSTYLE
  2
AM_ANSI$3
 70
     0
  3

  4
mm
  5

  6

  7

 40
1.0
 41
0.12
 42
0.05
 43
0.5
 44
0.1
 45
0.0
 46
0.0
 47
0.1
 48
0.1
140
0.12
141
0.0
142
0.0
143
25.399999999999999
144
1.0
145
0.0
146
0.71
147
0.06
 71
     0
 72
     0
 73
     1
 74
     1
 75
     0
 76
     0
 77
     0
 78
     7
170
     0
171
     2
172
     0
173
     0
174
     0
175
     0
176
   256
177
   256
178
     2
  0
DIMSTYLE
  2
AM_ANSI$4
 70
     0
  3

  4
mm
  5

  6

  7

 40
1.0
 41
0.12
 42
0.05
 43
0.5
 44
0.1
 45
0.0
 46
0.0
 47
0.1
 48
0.1
140
0.12
141
0.0
142
0.0
143
25.399999999999999
144
1.0
145
0.0
146
0.71
147
0.06
 71
     0
 72
     0
 73
     1
 74
     1
 75
     0
 76
     0
 77
     0
 78
     7
170
     0
171
     2
172
     0
173
     0
174
     0
175
     0
176
   256
177
   256
178
     2
  0
DIMSTYLE
  2
AM_ANSI$7
 70
     0
  3

  4
mm
  5

  6

  7

 40
1.0
 41
0.12
 42
0.05
 43
0.5
 44
0.1
 45
0.0
 46
0.0
 47
0.1
 48
0.1
140
0.12
141
0.0
142
0.0
143
25.399999999999999
144
1.0
145
0.0
146
0.71
147
0.06
 71
     0
 72
     0
 73
     1
 74
     1
 75
     0
 76
     0
 77
     0
 78
     7
170
     0
171
     2
172
     0
173
     0
174
     0
175
     0
176
   256
177
   256
178
     2
  0
DIMSTYLE
  2
AM_ANSI$SF
 70
     0
  3

  4
mm
  5

  6

  7

 40
1.0
 41
0.12
 42
0.05
 43
0.5
 44
0.1
 45
0.0
 46
0.0
 47
0.1
 48
0.1
140
0.12
141
0.0
142
0.0
143
25.399999999999999
144
1.0
145
0.0
146
0.71
147
0.06
 71
     0
 72
     0
 73
     1
 74
     1
 75
     1
 76
     1
 77
     0
 78
     7
170
     0
171
     2
172
     0
173
     0
174
     0
175
     0
176
   256
177
   256
178
     2
  0
DIMSTYLE
  2
AM_ANSI$SH
 70
     0
  3

  4
mm
  5

  6

  7

 40
1.0
 41
0.12
 42
0.05
 43
0.5
 44
0.1
 45
0.0
 46
0.0
 47
0.1
 48
0.1
140
0.12
141
0.0
142
0.0
143
25.399999999999999
144
1.0
145
0.0
146
0.71
147
0.06
 71
     0
 72
     0
 73
     1
 74
     1
 75
     1
 76
     1
 77
     0
 78
     7
170
     0
171
     2
172
     0
173
     1
174
     0
175
     0
176
   256
177
   256
178
     2
  0
ENDTAB
  0
ENDSEC
  0
SECTION
  2
BLOCKS
  0
BLOCK
  8
0
  2
$MODEL_SPACE
 70
     0
 10
0.0
 20
0.0
 30
0.0
  3
$MODEL_SPACE
  1

  0
ENDBLK
  5
1D25
  8
0
  0
BLOCK
 67
     1
  8
0
  2
$PAPER_SPACE
 70
     0
 10
0.0
 20
0.0
 30
0.0
  3
$PAPER_SPACE
  1

  0
ENDBLK
  5
1D21
 67
     1
  8
0
  0
BLOCK
  8
0
  2
_ACMFILLEDHALF
 70
     0
 10
0.0
 20
0.0
 30
0.0
  3
_ACMFILLEDHALF
  1

  0
TRACE
  5
CA8
  8
0
  6
CONTINUOUS
 62
     0
 10
-0.8
 20
0.0
 30
0.0
 11
-1.0
 21
0.166666666
 31
0.0
 12
0.0
 22
0.0
 32
0.0
 13
0.0
 23
0.0
 33
0.0
  0
LINE
  5
CA9
  8
0
  6
CONTINUOUS
 62
     0
 10
-1.0
 20
0.0
 30
0.0
 11
-0.8
 21
0.0
 31
0.0
  0
ENDBLK
  5
CA7
  8
0
  0
ENDSEC
  0
SECTION
  2
ENTITIES
  0
POLYLINE
  5
82
  8
0
 66
     1
 10
0.0
 20
0.0
 30
0.0
  0
VERTEX
  5
83
  8
0
 10
209.1522577943222
 20
111.49842316476359
 30
0.0
  0
VERTEX
  5
84
  8
0
 10
209.1522607537112
 20
111.5132408254866
 30
0.0
  0
VERTEX
  5
85
  8
0
 10
209.15227407096171
 20
111.5280570065151
 30
0.0
  0
VERTEX
  5
86
  8
0
 10
209.15229478668479
 20
111.54287318754361
 30
0.0
  0
VERTEX
  5
87
  8
0
 10
209.15232438057481
 20
111.55768640918311
 30
0.0
  0
VERTEX
  5
88
  8
0
 10
209.1523628526318
 20
111.57249963082261
 30
0.0
  0
VERTEX
  5
89
  8
0
 10
209.1524072434668
 20
111.5873113727676
 30
0.0
  0
VERTEX
  5
8A
  8
0
 10
209.15246051246879
 20
111.60212163501809
 30
0.0
  0
VERTEX
  5
8B
  8
0
 10
209.15252117994319
 20
111.6169304175741
 30
0.0
  0
VERTEX
  5
8C
  8
0
 10
209.15258924589031
 20
111.6317392001301
 30
0.0
  0
VERTEX
  5
8D
  8
0
 10
209.15266323061519
 20
111.6465465029916
 30
0.0
  0
VERTEX
  5
8E
  8
0
 10
209.1527460935072
 20
111.66135232615861
 30
0.0
  0
VERTEX
  5
8F
  8
0
 10
209.15283339548279
 20
111.6761566696311
 30
0.0
  0
VERTEX
  5
90
  8
0
 10
209.15292957562519
 20
111.6909610131036
 30
0.0
  0
VERTEX
  5
91
  8
0
 10
209.1530316745457
 20
111.7057638768816
 30
0.0
  0
VERTEX
  5
92
  8
0
 10
209.15313969224431
 20
111.7205652609651
 30
0.0
  0
VERTEX
  5
93
  8
0
 10
209.15325362872071
 20
111.7353666450486
 30
0.0
  0
VERTEX
  5
94
  8
0
 10
209.15337348397529
 20
111.75016654943759
 30
0.0
  0
VERTEX
  5
95
  8
0
 10
209.1534992580078
 20
111.7649649741321
 30
0.0
  0
VERTEX
  5
96
  8
0
 10
209.1536309508183
 20
111.7797633988266
 30
0.0
  0
VERTEX
  5
97
  8
0
 10
209.1537685624067
 20
111.7945603438266
 30
0.0
  0
VERTEX
  5
98
  8
0
 10
209.15391061307881
 20
111.8093572888266
 30
0.0
  0
VERTEX
  5
99
  8
0
 10
209.15405710283429
 20
111.8241527541321
 30
0.0
  0
VERTEX
  5
9A
  8
0
 10
209.1542095113677
 20
111.8389482194376
 30
0.0
  0
VERTEX
  5
9B
  8
0
 10
209.15436635898479
 20
111.8537422050486
 30
0.0
  0
VERTEX
  5
9C
  8
0
 10
209.15452764568519
 20
111.8685361906596
 30
0.0
  0
VERTEX
  5
9D
  8
0
 10
209.15469337146919
 20
111.8833286965761
 30
0.0
  0
VERTEX
  5
9E
  8
0
 10
209.15486353633679
 20
111.8981212024926
 30
0.0
  0
VERTEX
  5
9F
  8
0
 10
209.1550381402877
 20
111.91291370840911
 30
0.0
  0
VERTEX
  5
A0
  8
0
 10
209.1552157036277
 20
111.92770473463111
 30
0.0
  0
VERTEX
  5
A1
  8
0
 10
209.1553977060513
 20
111.9424942811586
 30
0.0
  0
VERTEX
  5
A2
  8
0
 10
209.1555826678638
 20
111.9572853073806
 30
0.0
  0
VERTEX
  5
A3
  8
0
 10
209.15577206875969
 20
111.9720748539081
 30
0.0
  0
VERTEX
  5
A4
  8
0
 10
209.15596442904479
 20
111.9868629207411
 30
0.0
  0
VERTEX
  5
A5
  8
0
 10
209.15615826902419
 20
112.0016524672686
 30
0.0
  0
VERTEX
  5
A6
  8
0
 10
209.1563565480873
 20
112.0164405341016
 30
0.0
  0
VERTEX
  5
A7
  8
0
 10
209.15655630684469
 20
112.0312286009346
 30
0.0
  0
VERTEX
  5
A8
  8
0
 10
209.1567590249912
 20
112.0460151880731
 30
0.0
  0
VERTEX
  5
A9
  8
0
 10
209.15696470252669
 20
112.0608017752116
 30
0.0
  0
VERTEX
  5
AA
  8
0
 10
209.15717185975669
 20
112.0755883623501
 30
0.0
  0
VERTEX
  5
AB
  8
0
 10
209.1573819763758
 20
112.09037494948861
 30
0.0
  0
VERTEX
  5
AC
  8
0
 10
209.1575920929948
 20
112.10516153662709
 30
0.0
  0
VERTEX
  5
AD
  8
0
 10
209.1578051690027
 20
112.1199481237656
 30
0.0
  0
VERTEX
  5
AE
  8
0
 10
209.1580197247053
 20
112.13473323120959
 30
0.0
  0
VERTEX
  5
AF
  8
0
 10
209.15823428040761
 20
112.14951833865361
 30
0.0
  0
VERTEX
  5
B0
  8
0
 10
209.15845179549919
 20
112.16430492579209
 30
0.0
  0
VERTEX
  5
B1
  8
0
 10
209.1586693105908
 20
112.17909003323599
 30
0.0
  0
VERTEX
  5
B2
  8
0
 10
209.15888830537679
 20
112.19387514068011
 30
0.0
  0
VERTEX
  5
B3
  8
0
 10
209.15910730016279
 20
112.2086602481241
 30
0.0
  0
VERTEX
  5
B4
  8
0
 10
209.1593262949487
 20
112.2234453555681
 30
0.0
  0
VERTEX
  5
B5
  8
0
 10
209.15954528973469
 20
112.2382304630121
 30
0.0
  0
VERTEX
  5
B6
  8
0
 10
209.15976576421519
 20
112.2530155704561
 30
0.0
  0
VERTEX
  5
B7
  8
0
 10
209.15998475900119
 20
112.2678006779
 30
0.0
  0
VERTEX
  5
B8
  8
0
 10
209.16020375378719
 20
112.2825857853441
 30
0.0
  0
VERTEX
  5
B9
  8
0
 10
209.1604227485733
 20
112.2973723724826
 30
0.0
  0
VERTEX
  5
BA
  8
0
 10
209.16064174335929
 20
112.3121574799265
 30
0.0
  0
VERTEX
  5
BB
  8
0
 10
209.16085925845081
 20
112.3269425873706
 30
0.0
  0
VERTEX
  5
BC
  8
0
 10
209.16107677354219
 20
112.3417291745091
 30
0.0
  0
VERTEX
  5
BD
  8
0
 10
209.1612913292447
 20
112.3565142819531
 30
0.0
  0
VERTEX
  5
BE
  8
0
 10
209.16150588494719
 20
112.3713008690916
 30
0.0
  0
VERTEX
  5
BF
  8
0
 10
209.16171896095531
 20
112.3860874562301
 30
0.0
  0
VERTEX
  5
C0
  8
0
 10
209.16192907757431
 20
112.4008740433686
 30
0.0
  0
VERTEX
  5
C1
  8
0
 10
209.16213919419329
 20
112.41566211020159
 30
0.0
  0
VERTEX
  5
C2
  8
0
 10
209.16234635142331
 20
112.4304501770346
 30
0.0
  0
VERTEX
  5
C3
  8
0
 10
209.16255202895869
 20
112.44523824386761
 30
0.0
  0
VERTEX
  5
C4
  8
0
 10
209.16275474710511
 20
112.4600263107006
 30
0.0
  0
VERTEX
  5
C5
  8
0
 10
209.16295450586281
 20
112.4748143775336
 30
0.0
  0
VERTEX
  5
C6
  8
0
 10
209.16315278492581
 20
112.4896039240611
 30
0.0
  0
VERTEX
  5
C7
  8
0
 10
209.16334662490519
 20
112.5043934705886
 30
0.0
  0
VERTEX
  5
C8
  8
0
 10
209.1635389851902
 20
112.5191844968106
 30
0.0
  0
VERTEX
  5
C9
  8
0
 10
209.16372838608629
 20
112.53397552303259
 30
0.0
  0
VERTEX
  5
CA
  8
0
 10
209.16391334789881
 20
112.54876654925459
 30
0.0
  0
VERTEX
  5
CB
  8
0
 10
209.16409535032221
 20
112.5635590551711
 30
0.0
  0
VERTEX
  5
CC
  8
0
 10
209.1642729136621
 20
112.5783515610876
 30
0.0
  0
VERTEX
  5
CD
  8
0
 10
209.1644475176133
 20
112.5931440670041
 30
0.0
  0
VERTEX
  5
CE
  8
0
 10
209.16461768248081
 20
112.6079380526151
 30
0.0
  0
VERTEX
  5
CF
  8
0
 10
209.1647834082647
 20
112.62273351792059
 30
0.0
  0
VERTEX
  5
D0
  8
0
 10
209.16494469496519
 20
112.6375289832261
 30
0.0
  0
VERTEX
  5
D1
  8
0
 10
209.16510154258219
 20
112.6523244485316
 30
0.0
  0
VERTEX
  5
D2
  8
0
 10
209.16525395111569
 20
112.6671213935316
 30
0.0
  0
VERTEX
  5
D3
  8
0
 10
209.16540044087131
 20
112.68191981822611
 30
0.0
  0
VERTEX
  5
D4
  8
0
 10
209.16554249154319
 20
112.6967182429206
 30
0.0
  0
VERTEX
  5
D5
  8
0
 10
209.16568010313179
 20
112.7115181473096
 30
0.0
  0
VERTEX
  5
D6
  8
0
 10
209.1658117959422
 20
112.7263180516986
 30
0.0
  0
VERTEX
  5
D7
  8
0
 10
209.1659375699748
 20
112.7411194357821
 30
0.0
  0
VERTEX
  5
D8
  8
0
 10
209.1660574252293
 20
112.7559222995601
 30
0.0
  0
VERTEX
  5
D9
  8
0
 10
209.16617136170581
 20
112.7707251633381
 30
0.0
  0
VERTEX
  5
DA
  8
0
 10
209.1662793794041
 20
112.7855295068106
 30
0.0
  0
VERTEX
  5
DB
  8
0
 10
209.16638147832481
 20
112.8003353299776
 30
0.0
  0
VERTEX
  5
DC
  8
0
 10
209.16647765846719
 20
112.81514115314459
 30
0.0
  0
VERTEX
  5
DD
  8
0
 10
209.1665649604428
 20
112.8299499357006
 30
0.0
  0
VERTEX
  5
DE
  8
0
 10
209.16664782333481
 20
112.8447587182566
 30
0.0
  0
VERTEX
  5
DF
  8
0
 10
209.16672180805969
 20
112.8595675008126
 30
0.0
  0
VERTEX
  5
E0
  8
0
 10
209.1667898740067
 20
112.8743792427576
 30
0.0
  0
VERTEX
  5
E1
  8
0
 10
209.16685054148121
 20
112.88919098470259
 30
0.0
  0
VERTEX
  5
E2
  8
0
 10
209.16690381048329
 20
112.9040056860366
 30
0.0
  0
VERTEX
  5
E3
  8
0
 10
209.16694820131829
 20
112.9188203873706
 30
0.0
  0
VERTEX
  5
E4
  8
0
 10
209.16698667337519
 20
112.933636568399
 30
0.0
  0
VERTEX
  5
E5
  8
0
 10
209.1670162672653
 20
112.9484527494276
 30
0.0
  0
VERTEX
  5
E6
  8
0
 10
209.16703698298829
 20
112.9632718898451
 30
0.0
  0
VERTEX
  5
E7
  8
0
 10
209.16705030023871
 20
112.97809250995699
 30
0.0
  0
VERTEX
  5
E8
  8
0
 10
209.1670547393222
 20
112.9929146097636
 30
0.0
  0
VERTEX
  5
E9
  8
0
 10
209.16708581290669
 20
113.0078610039081
 30
0.0
  0
VERTEX
  5
EA
  8
0
 10
209.16717903366029
 20
113.0227763244681
 30
0.0
  0
VERTEX
  5
EB
  8
0
 10
209.1673314421937
 20
113.0376620511381
 30
0.0
  0
VERTEX
  5
EC
  8
0
 10
209.1675415588127
 20
113.0525211433071
 30
0.0
  0
VERTEX
  5
ED
  8
0
 10
209.16780790382271
 20
113.0673550806696
 30
0.0
  0
VERTEX
  5
EE
  8
0
 10
209.16812603814029
 20
113.0821683023091
 30
0.0
  0
VERTEX
  5
EF
  8
0
 10
209.16849596176519
 20
113.09696228792011
 30
0.0
  0
VERTEX
  5
F0
  8
0
 10
209.1689132356143
 20
113.1117399968916
 30
0.0
  0
VERTEX
  5
F1
  8
0
 10
209.16937933938181
 20
113.1265029089181
 30
0.0
  0
VERTEX
  5
F2
  8
0
 10
209.16988835428981
 20
113.1412554630831
 30
0.0
  0
VERTEX
  5
F3
  8
0
 10
209.17044176003279
 20
113.1559976593866
 30
0.0
  0
VERTEX
  5
F4
  8
0
 10
209.17103363783269
 20
113.1707354166066
 30
0.0
  0
VERTEX
  5
F5
  8
0
 10
209.17166398768981
 20
113.1854687347431
 30
0.0
  0
VERTEX
  5
F6
  8
0
 10
209.1723313299093
 20
113.2002020528796
 30
0.0
  0
VERTEX
  5
F7
  8
0
 10
209.17303270510229
 20
113.2149353710161
 30
0.0
  0
VERTEX
  5
F8
  8
0
 10
209.17376515387971
 20
113.2296746079306
 30
0.0
  0
VERTEX
  5
F9
  8
0
 10
209.17452719654719
 20
113.2444182839286
 30
0.0
  0
VERTEX
  5
FA
  8
0
 10
209.17531735341029
 20
113.2591737974826
 30
0.0
  0
VERTEX
  5
FB
  8
0
 10
209.17613266507971
 20
113.27393966889809
 30
0.0
  0
VERTEX
  5
FC
  8
0
 10
209.17697017216679
 20
113.2887203372586
 30
0.0
  0
VERTEX
  5
FD
  8
0
 10
209.17782987467129
 20
113.3035187619531
 30
0.0
  0
VERTEX
  5
FE
  8
0
 10
209.17870881320431
 20
113.3183364226761
 30
0.0
  0
VERTEX
  5
FF
  8
0
 10
209.1796040283767
 20
113.33317627881659
 30
0.0
  0
VERTEX
  5
100
  8
0
 10
209.18051552018889
 20
113.3480412897636
 30
0.0
  0
VERTEX
  5
101
  8
0
 10
209.18126868468929
 20
113.3612342459256
 30
0.0
  0
VERTEX
  5
102
  8
0
 10
209.1817481057073
 20
113.37544819129261
 30
0.0
  0
VERTEX
  5
103
  8
0
 10
209.18160161595179
 20
113.3902273799586
 30
0.0
  0
VERTEX
  5
104
  8
0
 10
209.18047408874281
 20
113.4051116269341
 30
0.0
  0
VERTEX
  5
105
  8
0
 10
209.17801335678931
 20
113.41964666600759
 30
0.0
  0
VERTEX
  5
106
  8
0
 10
209.17386577310569
 20
113.4333723121896
 30
0.0
  0
VERTEX
  5
107
  8
0
 10
209.1676776907068
 20
113.4458342992685
 30
0.0
  0
VERTEX
  5
108
  8
0
 10
209.15909694230129
 20
113.4565754016441
 30
0.0
  0
VERTEX
  5
109
  8
0
 10
209.1477698809037
 20
113.4651369140211
 30
0.0
  0
VERTEX
  5
10A
  8
0
 10
209.13699178616579
 20
113.4698112689466
 30
0.0
  0
VERTEX
  5
10B
  8
0
 10
209.12623736653981
 20
113.4716949200451
 30
0.0
  0
VERTEX
  5
10C
  8
0
 10
209.11554065499919
 20
113.47103793568709
 30
0.0
  0
VERTEX
  5
10D
  8
0
 10
209.10493568451781
 20
113.4680874248541
 30
0.0
  0
VERTEX
  5
10E
  8
0
 10
209.09445944745769
 20
113.4630964153056
 30
0.0
  0
VERTEX
  5
10F
  8
0
 10
209.0841459767928
 20
113.4563105363286
 30
0.0
  0
VERTEX
  5
110
  8
0
 10
209.07403078519081
 20
113.44798281568259
 30
0.0
  0
VERTEX
  5
111
  8
0
 10
209.06414938531981
 20
113.4383603623491
 30
0.0
  0
VERTEX
  5
112
  8
0
 10
209.0545372898477
 20
113.4276932446986
 30
0.0
  0
VERTEX
  5
113
  8
0
 10
209.0452300114427
 20
113.4162300514071
 30
0.0
  0
VERTEX
  5
114
  8
0
 10
209.0362615830783
 20
113.4042223305396
 30
0.0
  0
VERTEX
  5
115
  8
0
 10
209.0276675174222
 20
113.3919186707721
 30
0.0
  0
VERTEX
  5
116
  8
0
 10
209.01948480683731
 20
113.3795661810861
 30
0.0
  0
VERTEX
  5
117
  8
0
 10
209.01174600460229
 20
113.3674178892411
 30
0.0
  0
VERTEX
  5
118
  8
0
 10
209.0044895827742
 20
113.3557223839131
 30
0.0
  0
VERTEX
  5
119
  8
0
 10
208.99774809463219
 20
113.3447267740836
 30
0.0
  0
VERTEX
  5
11A
  8
0
 10
208.99155705284431
 20
113.3346840875121
 30
0.0
  0
VERTEX
  5
11B
  8
0
 10
208.98595344977269
 20
113.3258399534856
 30
0.0
  0
VERTEX
  5
11C
  8
0
 10
208.98097279808579
 20
113.3184473997636
 30
0.0
  0
VERTEX
  5
11D
  8
0
 10
208.9723373009837
 20
113.3062458389165
 30
0.0
  0
VERTEX
  5
11E
  8
0
 10
208.96370032418719
 20
113.2940472374586
 30
0.0
  0
VERTEX
  5
11F
  8
0
 10
208.95505890830731
 20
113.2818515953896
 30
0.0
  0
VERTEX
  5
120
  8
0
 10
208.94641305334369
 20
113.26965595332059
 30
0.0
  0
VERTEX
  5
121
  8
0
 10
208.9377671983803
 20
113.2574617909461
 30
0.0
  0
VERTEX
  5
122
  8
0
 10
208.9291169043332
 20
113.2452676285716
 30
0.0
  0
VERTEX
  5
123
  8
0
 10
208.92046513059171
 20
113.23307642558611
 30
0.0
  0
VERTEX
  5
124
  8
0
 10
208.91181187715571
 20
113.2208837429061
 30
0.0
  0
VERTEX
  5
125
  8
0
 10
208.9031556643308
 20
113.20869253992061
 30
0.0
  0
VERTEX
  5
126
  8
0
 10
208.89449945150571
 20
113.1965013369351
 30
0.0
  0
VERTEX
  5
127
  8
0
 10
208.88584323868079
 20
113.18431013394959
 30
0.0
  0
VERTEX
  5
128
  8
0
 10
208.87718554616129
 20
113.1721189309641
 30
0.0
  0
VERTEX
  5
129
  8
0
 10
208.86852785364169
 20
113.1599277279786
 30
0.0
  0
VERTEX
  5
12A
  8
0
 10
208.8598701611223
 20
113.1477350452986
 30
0.0
  0
VERTEX
  5
12B
  8
0
 10
208.85121394829719
 20
113.13554236261859
 30
0.0
  0
VERTEX
  5
12C
  8
0
 10
208.8425577354723
 20
113.1233496799386
 30
0.0
  0
VERTEX
  5
12D
  8
0
 10
208.83390300234171
 20
113.1111540378695
 30
0.0
  0
VERTEX
  5
12E
  8
0
 10
208.8252497489058
 20
113.09895839580059
 30
0.0
  0
VERTEX
  5
12F
  8
0
 10
208.8165994548587
 20
113.0867612740371
 30
0.0
  0
VERTEX
  5
130
  8
0
 10
208.80794916081169
 20
113.0745611928846
 30
0.0
  0
VERTEX
  5
131
  8
0
 10
208.7993033058483
 20
113.0623611117321
 30
0.0
  0
VERTEX
  5
132
  8
0
 10
208.7906589305793
 20
113.05015807119059
 30
0.0
  0
VERTEX
  5
133
  8
0
 10
208.78201899439381
 20
113.03795207125999
 30
0.0
  0
VERTEX
  5
134
  8
0
 10
208.77338201759721
 20
113.0257445916351
 30
0.0
  0
VERTEX
  5
135
  8
0
 10
208.7647494798841
 20
113.01353415262111
 30
0.0
  0
VERTEX
  5
136
  8
0
 10
208.75611990156031
 20
113.0013207542181
 30
0.0
  0
VERTEX
  5
137
  8
0
 10
208.74749476231969
 20
112.9891043964261
 30
0.0
  0
VERTEX
  5
138
  8
0
 10
208.7388755418572
 20
112.97688507924499
 30
0.0
  0
VERTEX
  5
139
  8
0
 10
208.7302607604783
 20
112.9646613229806
 30
0.0
  0
VERTEX
  5
13A
  8
0
 10
208.72165189787731
 20
112.95243460732711
 30
0.0
  0
VERTEX
  5
13B
  8
0
 10
208.71304895405419
 20
112.9402049322846
 30
0.0
  0
VERTEX
  5
13C
  8
0
 10
208.70445192900911
 20
112.9279708181586
 30
0.0
  0
VERTEX
  5
13D
  8
0
 10
208.69586082274219
 20
112.9157322649491
 30
0.0
  0
VERTEX
  5
13E
  8
0
 10
208.6872771149477
 20
112.9034892726561
 30
0.0
  0
VERTEX
  5
13F
  8
0
 10
208.67870080562579
 20
112.89124184127959
 30
0.0
  0
VERTEX
  5
140
  8
0
 10
208.67013189477629
 20
112.8789899708196
 30
0.0
  0
VERTEX
  5
141
  8
0
 10
208.66157038239919
 20
112.8667321815816
 30
0.0
  0
VERTEX
  5
142
  8
0
 10
208.6530177481892
 20
112.85446995325999
 30
0.0
  0
VERTEX
  5
143
  8
0
 10
208.6444725124517
 20
112.8422018061606
 30
0.0
  0
VERTEX
  5
144
  8
0
 10
208.6359376345757
 20
112.8299292199776
 30
0.0
  0
VERTEX
  5
145
  8
0
 10
208.62741015517221
 20
112.81764923532209
 30
0.0
  0
VERTEX
  5
146
  8
0
 10
208.61889303363029
 20
112.8053648115831
 30
0.0
  0
VERTEX
  5
147
  8
0
 10
208.6103862699498
 20
112.7930744690661
 30
0.0
  0
VERTEX
  5
148
  8
0
 10
208.60188838443631
 20
112.7807767280766
 30
0.0
  0
VERTEX
  5
149
  8
0
 10
208.59340233647879
 20
112.76847306830911
 30
0.0
  0
VERTEX
  5
14A
  8
0
 10
208.58492664638271
 20
112.75616348976359
 30
0.0
  0
VERTEX
  5
14B
  8
0
 10
208.57651162376129
 20
112.74393529441561
 30
0.0
  0
VERTEX
  5
14C
  8
0
 10
208.5680951214452
 20
112.7317085787621
 30
0.0
  0
VERTEX
  5
14D
  8
0
 10
208.55967565974029
 20
112.71948482249761
 30
0.0
  0
VERTEX
  5
14E
  8
0
 10
208.55125175895171
 20
112.70726254592761
 30
0.0
  0
VERTEX
  5
14F
  8
0
 10
208.54282489877431
 20
112.69504174905209
 30
0.0
  0
VERTEX
  5
150
  8
0
 10
208.53439655890219
 20
112.6828224318711
 30
0.0
  0
VERTEX
  5
151
  8
0
 10
208.52596377994681
 20
112.6706060740791
 30
0.0
  0
VERTEX
  5
152
  8
0
 10
208.51752804160211
 20
112.65839119598159
 30
0.0
  0
VERTEX
  5
153
  8
0
 10
208.50908934386879
 20
112.6461777975786
 30
0.0
  0
VERTEX
  5
154
  8
0
 10
208.50064768674611
 20
112.6339658788701
 30
0.0
  0
VERTEX
  5
155
  8
0
 10
208.49220159054019
 20
112.6217554398561
 30
0.0
  0
VERTEX
  5
156
  8
0
 10
208.4837540146398
 20
112.6095479602311
 30
0.0
  0
VERTEX
  5
157
  8
0
 10
208.47530347935029
 20
112.5973419603006
 30
0.0
  0
VERTEX
  5
158
  8
0
 10
208.46684998467171
 20
112.5851374400646
 30
0.0
  0
VERTEX
  5
159
  8
0
 10
208.4583935306043
 20
112.57293439952311
 30
0.0
  0
VERTEX
  5
15A
  8
0
 10
208.44993411714779
 20
112.5607328386761
 30
0.0
  0
VERTEX
  5
15B
  8
0
 10
208.44147174430211
 20
112.5485327575236
 30
0.0
  0
VERTEX
  5
15C
  8
0
 10
208.43300641206781
 20
112.5363356357601
 30
0.0
  0
VERTEX
  5
15D
  8
0
 10
208.4245381204442
 20
112.5241385139966
 30
0.0
  0
VERTEX
  5
15E
  8
0
 10
208.41606834912619
 20
112.51194435162211
 30
0.0
  0
VERTEX
  5
15F
  8
0
 10
208.40759413872479
 20
112.4997516689421
 30
0.0
  0
VERTEX
  5
160
  8
0
 10
208.3991184486288
 20
112.48756046595661
 30
0.0
  0
VERTEX
  5
161
  8
0
 10
208.39063979914371
 20
112.4753707426656
 30
0.0
  0
VERTEX
  5
162
  8
0
 10
208.38215819026971
 20
112.46318249906911
 30
0.0
  0
VERTEX
  5
163
  8
0
 10
208.37367362200681
 20
112.4509957351671
 30
0.0
  0
VERTEX
  5
164
  8
0
 10
208.36518757404929
 20
112.43881045095959
 30
0.0
  0
VERTEX
  5
165
  8
0
 10
208.35669708700831
 20
112.4266281261411
 30
0.0
  0
VERTEX
  5
166
  8
0
 10
208.3482051202727
 20
112.4144458013226
 30
0.0
  0
VERTEX
  5
167
  8
0
 10
208.33971167384269
 20
112.40226495619859
 30
0.0
  0
VERTEX
  5
168
  8
0
 10
208.33121378832931
 20
112.39008707046359
 30
0.0
  0
VERTEX
  5
169
  8
0
 10
208.32271442312131
 20
112.37790918472859
 30
0.0
  0
VERTEX
  5
16A
  8
0
 10
208.31421209852431
 20
112.3657342583826
 30
0.0
  0
VERTEX
  5
16B
  8
0
 10
208.30570829423269
 20
112.3535593320366
 30
0.0
  0
VERTEX
  5
16C
  8
0
 10
208.2972015305522
 20
112.34138588538509
 30
0.0
  0
VERTEX
  5
16D
  8
0
 10
208.28869180748271
 20
112.3292153981226
 30
0.0
  0
VERTEX
  5
16E
  8
0
 10
208.28017912502429
 20
112.3170449108601
 30
0.0
  0
VERTEX
  5
16F
  8
0
 10
208.27166496287131
 20
112.3048773829866
 30
0.0
  0
VERTEX
  5
170
  8
0
 10
208.2631493210238
 20
112.2927098551131
 30
0.0
  0
VERTEX
  5
171
  8
0
 10
208.25463071978729
 20
112.28054380693411
 30
0.0
  0
VERTEX
  5
172
  8
0
 10
208.24610915916179
 20
112.2683807181441
 30
0.0
  0
VERTEX
  5
173
  8
0
 10
208.2375861188417
 20
112.2562176293541
 30
0.0
  0
VERTEX
  5
174
  8
0
 10
208.2290601191327
 20
112.2440560202586
 30
0.0
  0
VERTEX
  5
175
  8
0
 10
208.22053263972921
 20
112.2318958908576
 30
0.0
  0
VERTEX
  5
176
  8
0
 10
208.21200368063111
 20
112.21973724115109
 30
0.0
  0
VERTEX
  5
177
  8
0
 10
208.2034717621442
 20
112.20758007113911
 30
0.0
  0
VERTEX
  5
178
  8
0
 10
208.1949368842682
 20
112.19542438082161
 30
0.0
  0
VERTEX
  5
179
  8
0
 10
208.1864005266977
 20
112.18326869050409
 30
0.0
  0
VERTEX
  5
17A
  8
0
 10
208.17786268943269
 20
112.1711159595756
 30
0.0
  0
VERTEX
  5
17B
  8
0
 10
208.1693218927787
 20
112.1589632286471
 30
0.0
  0
VERTEX
  5
17C
  8
0
 10
208.1607796164302
 20
112.1468134571076
 30
0.0
  0
VERTEX
  5
17D
  8
0
 10
208.15223586038721
 20
112.1346636855681
 30
0.0
  0
VERTEX
  5
17E
  8
0
 10
208.1436891449552
 20
112.12251539372311
 30
0.0
  0
VERTEX
  5
17F
  8
0
 10
208.1351409498287
 20
112.1103685815726
 30
0.0
  0
VERTEX
  5
180
  8
0
 10
208.12658979531329
 20
112.0982217694221
 30
0.0
  0
VERTEX
  5
181
  8
0
 10
208.11803864079769
 20
112.0860779166606
 30
0.0
  0
VERTEX
  5
182
  8
0
 10
208.1094845268932
 20
112.0739340638991
 30
0.0
  0
VERTEX
  5
183
  8
0
 10
208.1009274535997
 20
112.0617916908321
 30
0.0
  0
VERTEX
  5
184
  8
0
 10
208.09237038030611
 20
112.04965079745961
 30
0.0
  0
VERTEX
  5
185
  8
0
 10
208.0838103476238
 20
112.03751138378161
 30
0.0
  0
VERTEX
  5
186
  8
0
 10
208.07524883524681
 20
112.0253734497981
 30
0.0
  0
VERTEX
  5
187
  8
0
 10
208.06668584317529
 20
112.0132355158146
 30
0.0
  0
VERTEX
  5
188
  8
0
 10
208.0581213714093
 20
112.00109906152559
 30
0.0
  0
VERTEX
  5
189
  8
0
 10
208.0495554199488
 20
111.98896408693111
 30
0.0
  0
VERTEX
  5
18A
  8
0
 10
208.0409865090993
 20
111.97683059203111
 30
0.0
  0
VERTEX
  5
18B
  8
0
 10
208.0324161185552
 20
111.96469709713109
 30
0.0
  0
VERTEX
  5
18C
  8
0
 10
208.0238457280112
 20
111.9525650819256
 30
0.0
  0
VERTEX
  5
18D
  8
0
 10
208.01527237807829
 20
111.94043454641459
 30
0.0
  0
VERTEX
  5
18E
  8
0
 10
208.00669754845069
 20
111.9283040109036
 30
0.0
  0
VERTEX
  5
18F
  8
0
 10
207.99812123912881
 20
111.9161764347816
 30
0.0
  0
VERTEX
  5
190
  8
0
 10
207.98954345011231
 20
111.90404885865961
 30
0.0
  0
VERTEX
  5
191
  8
0
 10
207.9809641814013
 20
111.8919212825376
 30
0.0
  0
VERTEX
  5
192
  8
0
 10
207.97238343299571
 20
111.8797951861101
 30
0.0
  0
VERTEX
  5
193
  8
0
 10
207.9638012048957
 20
111.8676705693771
 30
0.0
  0
VERTEX
  5
194
  8
0
 10
207.9552174971011
 20
111.8555474323386
 30
0.0
  0
VERTEX
  5
195
  8
0
 10
207.94663230961231
 20
111.8434257749946
 30
0.0
  0
VERTEX
  5
196
  8
0
 10
207.93804564242879
 20
111.8313026379561
 30
0.0
  0
VERTEX
  5
197
  8
0
 10
207.92945749555079
 20
111.81918246030661
 30
0.0
  0
VERTEX
  5
198
  8
0
 10
207.92086786897821
 20
111.8070622826571
 30
0.0
  0
VERTEX
  5
199
  8
0
 10
207.9122782424057
 20
111.7949435847021
 30
0.0
  0
VERTEX
  5
19A
  8
0
 10
207.9036856564442
 20
111.7828263664416
 30
0.0
  0
VERTEX
  5
19B
  8
0
 10
207.89509307048269
 20
111.7707091481811
 30
0.0
  0
VERTEX
  5
19C
  8
0
 10
207.88649900482679
 20
111.7585934096151
 30
0.0
  0
VERTEX
  5
19D
  8
0
 10
207.87790345947619
 20
111.74647767104911
 30
0.0
  0
VERTEX
  5
19E
  8
0
 10
207.86930643443119
 20
111.7343634121776
 30
0.0
  0
VERTEX
  5
19F
  8
0
 10
207.86070792969181
 20
111.7222506330006
 30
0.0
  0
VERTEX
  5
1A0
  8
0
 10
207.85210942495229
 20
111.7101378538235
 30
0.0
  0
VERTEX
  5
1A1
  8
0
 10
207.84350944051829
 20
111.69802507464659
 30
0.0
  0
VERTEX
  5
1A2
  8
0
 10
207.8349079763897
 20
111.6859152548586
 30
0.0
  0
VERTEX
  5
1A3
  8
0
 10
207.8263065122612
 20
111.6738039553761
 30
0.0
  0
VERTEX
  5
1A4
  8
0
 10
207.81770208874369
 20
111.6616956152826
 30
0.0
  0
VERTEX
  5
1A5
  8
0
 10
207.80909766522629
 20
111.6495857954946
 30
0.0
  0
VERTEX
  5
1A6
  8
0
 10
207.80049324170869
 20
111.6374789350956
 30
0.0
  0
VERTEX
  5
1A7
  8
0
 10
207.79188733849679
 20
111.6253720746966
 30
0.0
  0
VERTEX
  5
1A8
  8
0
 10
207.78327995559019
 20
111.6132652142976
 30
0.0
  0
VERTEX
  5
1A9
  8
0
 10
207.77467109298931
 20
111.6011598335931
 30
0.0
  0
VERTEX
  5
1AA
  8
0
 10
207.7660622303882
 20
111.5890544528886
 30
0.0
  0
VERTEX
  5
1AB
  8
0
 10
207.75745336778729
 20
111.5769505518786
 30
0.0
  0
VERTEX
  5
1AC
  8
0
 10
207.74884154579729
 20
111.56484813056311
 30
0.0
  0
VERTEX
  5
1AD
  8
0
 10
207.74023120350179
 20
111.5527442295531
 30
0.0
  0
VERTEX
  5
1AE
  8
0
 10
207.7316179018172
 20
111.5406432879321
 30
0.0
  0
VERTEX
  5
1AF
  8
0
 10
207.72300460013281
 20
111.52854086661659
 30
0.0
  0
VERTEX
  5
1B0
  8
0
 10
207.71439129844831
 20
111.51643992499559
 30
0.0
  0
VERTEX
  5
1B1
  8
0
 10
207.70577651706921
 20
111.5043404630691
 30
0.0
  0
VERTEX
  5
1B2
  8
0
 10
207.69716173569029
 20
111.4922410011426
 30
0.0
  0
VERTEX
  5
1B3
  8
0
 10
207.6885454746168
 20
111.4801430189106
 30
0.0
  0
VERTEX
  5
1B4
  8
0
 10
207.67992921354329
 20
111.4680435569841
 30
0.0
  0
VERTEX
  5
1B5
  8
0
 10
207.67131295246961
 20
111.4559470544466
 30
0.0
  0
VERTEX
  5
1B6
  8
0
 10
207.6626952117017
 20
111.4438490722146
 30
0.0
  0
VERTEX
  5
1B7
  8
0
 10
207.6540759912393
 20
111.4317525696771
 30
0.0
  0
VERTEX
  5
1B8
  8
0
 10
207.64545825047119
 20
111.4196575468341
 30
0.0
  0
VERTEX
  5
1B9
  8
0
 10
207.63683755031431
 20
111.4075610442966
 30
0.0
  0
VERTEX
  5
1BA
  8
0
 10
207.62821832985179
 20
111.3954675011481
 30
0.0
  0
VERTEX
  5
1BB
  8
0
 10
207.61959762969471
 20
111.38337247830511
 30
0.0
  0
VERTEX
  5
1BC
  8
0
 10
207.61097692953771
 20
111.3712789351566
 30
0.0
  0
VERTEX
  5
1BD
  8
0
 10
207.6023562293808
 20
111.3591853920081
 30
0.0
  0
VERTEX
  5
1BE
  8
0
 10
207.59373552922369
 20
111.34709184885961
 30
0.0
  0
VERTEX
  5
1BF
  8
0
 10
207.58511334937211
 20
111.3349997854056
 30
0.0
  0
VERTEX
  5
1C0
  8
0
 10
207.57649116952081
 20
111.32290772195159
 30
0.0
  0
VERTEX
  5
1C1
  8
0
 10
207.5678675099748
 20
111.31081713819211
 30
0.0
  0
VERTEX
  5
1C2
  8
0
 10
207.55924533012319
 20
111.2987265544326
 30
0.0
  0
VERTEX
  5
1C3
  8
0
 10
207.55062167057719
 20
111.2866359706731
 30
0.0
  0
VERTEX
  5
1C4
  8
0
 10
207.5419994907258
 20
111.2745453869136
 30
0.0
  0
VERTEX
  5
1C5
  8
0
 10
207.5333758311798
 20
111.2624548031541
 30
0.0
  0
VERTEX
  5
1C6
  8
0
 10
207.52475217163379
 20
111.2503656990891
 30
0.0
  0
VERTEX
  5
1C7
  8
0
 10
207.51612703239331
 20
111.2382765950241
 30
0.0
  0
VERTEX
  5
1C8
  8
0
 10
207.5075033728472
 20
111.2261889706536
 30
0.0
  0
VERTEX
  5
1C9
  8
0
 10
207.49887971330119
 20
111.2140998665886
 30
0.0
  0
VERTEX
  5
1CA
  8
0
 10
207.4902545740608
 20
111.2020122422181
 30
0.0
  0
VERTEX
  5
1CB
  8
0
 10
207.4816309145148
 20
111.18992461784759
 30
0.0
  0
VERTEX
  5
1CC
  8
0
 10
207.47300577527429
 20
111.1778369934771
 30
0.0
  0
VERTEX
  5
1CD
  8
0
 10
207.46438211572831
 20
111.16574936910661
 30
0.0
  0
VERTEX
  5
1CE
  8
0
 10
207.45575697648769
 20
111.1536632244306
 30
0.0
  0
VERTEX
  5
1CF
  8
0
 10
207.44713331694169
 20
111.1415770797546
 30
0.0
  0
VERTEX
  5
1D0
  8
0
 10
207.4385096573958
 20
111.12949093507861
 30
0.0
  0
VERTEX
  5
1D1
  8
0
 10
207.42988451815521
 20
111.1174047904026
 30
0.0
  0
VERTEX
  5
1D2
  8
0
 10
207.42126085860929
 20
111.1053186457266
 30
0.0
  0
VERTEX
  5
1D3
  8
0
 10
207.41263719906331
 20
111.0932339807451
 30
0.0
  0
VERTEX
  5
1D4
  8
0
 10
207.40401353951719
 20
111.08114783606911
 30
0.0
  0
VERTEX
  5
1D5
  8
0
 10
207.39538987997119
 20
111.06906317108761
 30
0.0
  0
VERTEX
  5
1D6
  8
0
 10
207.3867662204253
 20
111.05697850610611
 30
0.0
  0
VERTEX
  5
1D7
  8
0
 10
207.37814256087921
 20
111.0448938411246
 30
0.0
  0
VERTEX
  5
1D8
  8
0
 10
207.36951890133329
 20
111.0328091761431
 30
0.0
  0
VERTEX
  5
1D9
  8
0
 10
207.36089672148171
 20
111.02072599085611
 30
0.0
  0
VERTEX
  5
1DA
  8
0
 10
207.35227454163021
 20
111.00864132587461
 30
0.0
  0
VERTEX
  5
1DB
  8
0
 10
207.34365236177879
 20
110.99655666089311
 30
0.0
  0
VERTEX
  5
1DC
  8
0
 10
207.33503018192729
 20
110.98447347560609
 30
0.0
  0
VERTEX
  5
1DD
  8
0
 10
207.3264094817703
 20
110.97238881062459
 30
0.0
  0
VERTEX
  5
1DE
  8
0
 10
207.31778878161319
 20
110.9603056253376
 30
0.0
  0
VERTEX
  5
1DF
  8
0
 10
207.30916808145631
 20
110.9482224400506
 30
0.0
  0
VERTEX
  5
1E0
  8
0
 10
207.30054886099381
 20
110.9361392547636
 30
0.0
  0
VERTEX
  5
1E1
  8
0
 10
207.29187489183479
 20
110.92397320658461
 30
0.0
  0
VERTEX
  5
1E2
  8
0
 10
207.28320832114829
 20
110.9118027193221
 30
0.0
  0
VERTEX
  5
1E3
  8
0
 10
207.2745491489342
 20
110.8996277929761
 30
0.0
  0
VERTEX
  5
1E4
  8
0
 10
207.26589589549829
 20
110.8874469478521
 30
0.0
  0
VERTEX
  5
1E5
  8
0
 10
207.2572485608402
 20
110.8752646230336
 30
0.0
  0
VERTEX
  5
1E6
  8
0
 10
207.24860714496029
 20
110.8630763794371
 30
0.0
  0
VERTEX
  5
1E7
  8
0
 10
207.23997016816381
 20
110.8508851764516
 30
0.0
  0
VERTEX
  5
1E8
  8
0
 10
207.2313391101452
 20
110.8386910140771
 30
0.0
  0
VERTEX
  5
1E9
  8
0
 10
207.2227124912103
 20
110.8264924126191
 30
0.0
  0
VERTEX
  5
1EA
  8
0
 10
207.2140903113588
 20
110.8142908517721
 30
0.0
  0
VERTEX
  5
1EB
  8
0
 10
207.2054725705907
 20
110.8020863315361
 30
0.0
  0
VERTEX
  5
1EC
  8
0
 10
207.19685778921169
 20
110.7898803316056
 30
0.0
  0
VERTEX
  5
1ED
  8
0
 10
207.18824744691631
 20
110.77767137228599
 30
0.0
  0
VERTEX
  5
1EE
  8
0
 10
207.1796400640097
 20
110.76545945357761
 30
0.0
  0
VERTEX
  5
1EF
  8
0
 10
207.17103564049211
 20
110.7532460551746
 30
0.0
  0
VERTEX
  5
1F0
  8
0
 10
207.16243417636369
 20
110.7410296973826
 30
0.0
  0
VERTEX
  5
1F1
  8
0
 10
207.15383567162431
 20
110.7288133395906
 30
0.0
  0
VERTEX
  5
1F2
  8
0
 10
207.1452386465792
 20
110.71659402240959
 30
0.0
  0
VERTEX
  5
1F3
  8
0
 10
207.13664310122871
 20
110.7043747052286
 30
0.0
  0
VERTEX
  5
1F4
  8
0
 10
207.12804903557279
 20
110.69215390835311
 30
0.0
  0
VERTEX
  5
1F5
  8
0
 10
207.11945644961131
 20
110.67993163178311
 30
0.0
  0
VERTEX
  5
1F6
  8
0
 10
207.1108653433443
 20
110.66770935521311
 30
0.0
  0
VERTEX
  5
1F7
  8
0
 10
207.10227423707721
 20
110.65548707864311
 30
0.0
  0
VERTEX
  5
1F8
  8
0
 10
207.09368313081021
 20
110.6432633223786
 30
0.0
  0
VERTEX
  5
1F9
  8
0
 10
207.0850935042377
 20
110.6310410458086
 30
0.0
  0
VERTEX
  5
1FA
  8
0
 10
207.07650239797081
 20
110.6188187692386
 30
0.0
  0
VERTEX
  5
1FB
  8
0
 10
207.0679098120093
 20
110.6065964926686
 30
0.0
  0
VERTEX
  5
1FC
  8
0
 10
207.0593172260478
 20
110.5943742160986
 30
0.0
  0
VERTEX
  5
1FD
  8
0
 10
207.0507246400862
 20
110.5821534192231
 30
0.0
  0
VERTEX
  5
1FE
  8
0
 10
207.04212909473571
 20
110.5699341020421
 30
0.0
  0
VERTEX
  5
1FF
  8
0
 10
207.03353206969081
 20
110.5577147848611
 30
0.0
  0
VERTEX
  5
200
  8
0
 10
207.02493208525681
 20
110.54549842706911
 30
0.0
  0
VERTEX
  5
201
  8
0
 10
207.01633062112819
 20
110.5332835489716
 30
0.0
  0
VERTEX
  5
202
  8
0
 10
207.0077276773053
 20
110.5210686708741
 30
0.0
  0
VERTEX
  5
203
  8
0
 10
206.99912029439881
 20
110.5088582318601
 30
0.0
  0
VERTEX
  5
204
  8
0
 10
206.99050995210331
 20
110.49664927254059
 30
0.0
  0
VERTEX
  5
205
  8
0
 10
206.98189517072419
 20
110.4844417929156
 30
0.0
  0
VERTEX
  5
206
  8
0
 10
206.9732774299562
 20
110.4722387523741
 30
0.0
  0
VERTEX
  5
207
  8
0
 10
206.9646552501049
 20
110.46003719152711
 30
0.0
  0
VERTEX
  5
208
  8
0
 10
206.95603011086411
 20
110.4478400697636
 30
0.0
  0
VERTEX
  5
209
  8
0
 10
206.94861388203029
 20
110.4376790076321
 30
0.0
  0
VERTEX
  5
20A
  8
0
 10
206.94049035922529
 20
110.4270607199001
 30
0.0
  0
VERTEX
  5
20B
  8
0
 10
206.93179123525971
 20
110.41602663801361
 30
0.0
  0
VERTEX
  5
20C
  8
0
 10
206.92264524355531
 20
110.4046137543351
 30
0.0
  0
VERTEX
  5
20D
  8
0
 10
206.91318555661681
 20
110.3928605409216
 30
0.0
  0
VERTEX
  5
20E
  8
0
 10
206.90354090786579
 20
110.3808039901356
 30
0.0
  0
VERTEX
  5
20F
  8
0
 10
206.89384299011269
 20
110.36848405372859
 30
0.0
  0
VERTEX
  5
210
  8
0
 10
206.88422201647381
 20
110.3559377240631
 30
0.0
  0
VERTEX
  5
211
  8
0
 10
206.87480820006479
 20
110.34320643258511
 30
0.0
  0
VERTEX
  5
212
  8
0
 10
206.86573323369629
 20
110.3303242122681
 30
0.0
  0
VERTEX
  5
213
  8
0
 10
206.85712881017881
 20
110.3173324945581
 30
0.0
  0
VERTEX
  5
214
  8
0
 10
206.84912366293369
 20
110.30426827181761
 30
0.0
  0
VERTEX
  5
215
  8
0
 10
206.84184948477181
 20
110.2911714957981
 30
0.0
  0
VERTEX
  5
216
  8
0
 10
206.83543796850319
 20
110.2780791588621
 30
0.0
  0
VERTEX
  5
217
  8
0
 10
206.83001784754981
 20
110.2650297330666
 30
0.0
  0
VERTEX
  5
218
  8
0
 10
206.82571933502729
 20
110.25206169046859
 30
0.0
  0
VERTEX
  5
219
  8
0
 10
206.82267708313529
 20
110.2392135031251
 30
0.0
  0
VERTEX
  5
21A
  8
0
 10
206.82101834560069
 20
110.22652512278761
 30
0.0
  0
VERTEX
  5
21B
  8
0
 10
206.8214134240323
 20
110.2120492714941
 30
0.0
  0
VERTEX
  5
21C
  8
0
 10
206.82459624690171
 20
110.19899392692059
 30
0.0
  0
VERTEX
  5
21D
  8
0
 10
206.83021612661281
 20
110.1872495916741
 30
0.0
  0
VERTEX
  5
21E
  8
0
 10
206.8379223755687
 20
110.17670528866709
 30
0.0
  0
VERTEX
  5
21F
  8
0
 10
206.8473672655623
 20
110.1672544798956
 30
0.0
  0
VERTEX
  5
220
  8
0
 10
206.85819862930211
 20
110.1587847085776
 30
0.0
  0
VERTEX
  5
221
  8
0
 10
206.87006725888671
 20
110.1511879570146
 30
0.0
  0
VERTEX
  5
222
  8
0
 10
206.8826239464137
 20
110.1443562075081
 30
0.0
  0
VERTEX
  5
223
  8
0
 10
206.8955165245923
 20
110.1381770032761
 30
0.0
  0
VERTEX
  5
224
  8
0
 10
206.9083957855203
 20
110.1325452860091
 30
0.0
  0
VERTEX
  5
225
  8
0
 10
206.9209125212958
 20
110.12734711923061
 30
0.0
  0
VERTEX
  5
226
  8
0
 10
206.93271604432229
 20
110.1224774446311
 30
0.0
  0
VERTEX
  5
227
  8
0
 10
206.94126128005971
 20
110.1188373961611
 30
0.0
  0
VERTEX
  5
228
  8
0
 10
206.95055080213081
 20
110.1147771144531
 30
0.0
  0
VERTEX
  5
229
  8
0
 10
206.9605416993947
 20
110.1103365512586
 30
0.0
  0
VERTEX
  5
22A
  8
0
 10
206.97119106071131
 20
110.10555417863461
 30
0.0
  0
VERTEX
  5
22B
  8
0
 10
206.9824559749398
 20
110.1004684686381
 30
0.0
  0
VERTEX
  5
22C
  8
0
 10
206.99429353093981
 20
110.09511937302059
 30
0.0
  0
VERTEX
  5
22D
  8
0
 10
207.00666229726531
 20
110.0895483232281
 30
0.0
  0
VERTEX
  5
22E
  8
0
 10
207.0195193627757
 20
110.0837908319286
 30
0.0
  0
VERTEX
  5
22F
  8
0
 10
207.0328218163308
 20
110.0778883305681
 30
0.0
  0
VERTEX
  5
230
  8
0
 10
207.0465282264843
 20
110.0718792912036
 30
0.0
  0
VERTEX
  5
231
  8
0
 10
207.06059420240129
 20
110.0658036655866
 30
0.0
  0
VERTEX
  5
232
  8
0
 10
207.0749768329413
 20
110.0596999257741
 30
0.0
  0
VERTEX
  5
233
  8
0
 10
207.08963616635279
 20
110.0536080235176
 30
0.0
  0
VERTEX
  5
234
  8
0
 10
207.10452781180069
 20
110.0475664308741
 30
0.0
  0
VERTEX
  5
235
  8
0
 10
207.11961033783919
 20
110.04161509959511
 30
0.0
  0
VERTEX
  5
236
  8
0
 10
207.1348393536332
 20
110.0357925017376
 30
0.0
  0
VERTEX
  5
237
  8
0
 10
207.15017342773669
 20
110.0301385890531
 30
0.0
  0
VERTEX
  5
238
  8
0
 10
207.1655711287037
 20
110.0246918335986
 30
0.0
  0
VERTEX
  5
239
  8
0
 10
207.1809880656993
 20
110.0194936668201
 30
0.0
  0
VERTEX
  5
23A
  8
0
 10
207.19638132758271
 20
110.01457960138561
 30
0.0
  0
VERTEX
  5
23B
  8
0
 10
207.21170948290811
 20
110.0099925484356
 30
0.0
  0
VERTEX
  5
23C
  8
0
 10
207.22693110022979
 20
110.0057695003326
 30
0.0
  0
VERTEX
  5
23D
  8
0
 10
207.24200178871229
 20
110.00195040882809
 30
0.0
  0
VERTEX
  5
23E
  8
0
 10
207.25687863721529
 20
109.9985752256736
 30
0.0
  0
VERTEX
  5
23F
  8
0
 10
207.27152021429279
 20
109.9956809432316
 30
0.0
  0
VERTEX
  5
240
  8
0
 10
207.2858836088042
 20
109.9933089929481
 30
0.0
  0
VERTEX
  5
241
  8
0
 10
207.29992738930369
 20
109.99149784688009
 30
0.0
  0
VERTEX
  5
242
  8
0
 10
207.3136071649563
 20
109.9902874567791
 30
0.0
  0
VERTEX
  5
243
  8
0
 10
207.3268800246212
 20
109.98971629470211
 30
0.0
  0
VERTEX
  5
244
  8
0
 10
207.33970601654721
 20
109.9898228327061
 30
0.0
  0
VERTEX
  5
245
  8
0
 10
207.35204074989929
 20
109.9906470225426
 30
0.0
  0
VERTEX
  5
246
  8
0
 10
207.3638413135368
 20
109.99223029565761
 30
0.0
  0
VERTEX
  5
247
  8
0
 10
207.3750662760138
 20
109.9946081647191
 30
0.0
  0
VERTEX
  5
248
  8
0
 10
207.38567272618971
 20
109.9978220611731
 30
0.0
  0
VERTEX
  5
249
  8
0
 10
207.3956177529243
 20
110.0019104570766
 30
0.0
  0
VERTEX
  5
24A
  8
0
 10
207.4048584450768
 20
110.0069133041811
 30
0.0
  0
VERTEX
  5
24B
  8
0
 10
207.41335337120131
 20
110.01287055423811
 30
0.0
  0
VERTEX
  5
24C
  8
0
 10
207.4231844614593
 20
110.0209615237641
 30
0.0
  0
VERTEX
  5
24D
  8
0
 10
207.43290901371321
 20
110.0295052798071
 30
0.0
  0
VERTEX
  5
24E
  8
0
 10
207.44252702796331
 20
110.0384796269496
 30
0.0
  0
VERTEX
  5
24F
  8
0
 10
207.4520399839038
 20
110.0478682885521
 30
0.0
  0
VERTEX
  5
250
  8
0
 10
207.46144936122931
 20
110.0576505488916
 30
0.0
  0
VERTEX
  5
251
  8
0
 10
207.47075663963429
 20
110.0678101313286
 30
0.0
  0
VERTEX
  5
252
  8
0
 10
207.47996477850779
 20
110.0783248404456
 30
0.0
  0
VERTEX
  5
253
  8
0
 10
207.48907525754419
 20
110.0891783996031
 30
0.0
  0
VERTEX
  5
254
  8
0
 10
207.49808807674381
 20
110.1003515727726
 30
0.0
  0
VERTEX
  5
255
  8
0
 10
207.50700619549519
 20
110.1118266036201
 30
0.0
  0
VERTEX
  5
256
  8
0
 10
207.5158296137987
 20
110.12358277642259
 30
0.0
  0
VERTEX
  5
257
  8
0
 10
207.5245627707377
 20
110.1356023348461
 30
0.0
  0
VERTEX
  5
258
  8
0
 10
207.53320566631231
 20
110.14786604286211
 30
0.0
  0
VERTEX
  5
259
  8
0
 10
207.5417583005223
 20
110.1603561441366
 30
0.0
  0
VERTEX
  5
25A
  8
0
 10
207.55022511245119
 20
110.1730534026411
 30
0.0
  0
VERTEX
  5
25B
  8
0
 10
207.5586061020993
 20
110.18593858234711
 30
0.0
  0
VERTEX
  5
25C
  8
0
 10
207.56690274916079
 20
110.19899392692059
 30
0.0
  0
VERTEX
  5
25D
  8
0
 10
207.57511801302471
 20
110.2122002003331
 30
0.0
  0
VERTEX
  5
25E
  8
0
 10
207.5832533733857
 20
110.22553816655611
 30
0.0
  0
VERTEX
  5
25F
  8
0
 10
207.5913088302438
 20
110.23899006925561
 30
0.0
  0
VERTEX
  5
260
  8
0
 10
207.59928734298779
 20
110.2525366724031
 30
0.0
  0
VERTEX
  5
261
  8
0
 10
207.60718891161781
 20
110.2661602196646
 30
0.0
  0
VERTEX
  5
262
  8
0
 10
207.61501797521711
 20
110.2798399953171
 30
0.0
  0
VERTEX
  5
263
  8
0
 10
207.62277305409179
 20
110.2935582430266
 30
0.0
  0
VERTEX
  5
264
  8
0
 10
207.63045710763029
 20
110.3072972064591
 30
0.0
  0
VERTEX
  5
265
  8
0
 10
207.63807309522181
 20
110.3210361698916
 30
0.0
  0
VERTEX
  5
266
  8
0
 10
207.6456210168661
 20
110.3347573769901
 30
0.0
  0
VERTEX
  5
267
  8
0
 10
207.65310235225829
 20
110.3484430714206
 30
0.0
  0
VERTEX
  5
268
  8
0
 10
207.66052006078669
 20
110.3620740171546
 30
0.0
  0
VERTEX
  5
269
  8
0
 10
207.66787414245181
 20
110.3756294984691
 30
0.0
  0
VERTEX
  5
26A
  8
0
 10
207.67516755664229
 20
110.3890932387246
 30
0.0
  0
VERTEX
  5
26B
  8
0
 10
207.68240178305271
 20
110.4024460018926
 30
0.0
  0
VERTEX
  5
26C
  8
0
 10
207.68957830137779
 20
110.41566855194461
 30
0.0
  0
VERTEX
  5
26D
  8
0
 10
207.6966971116172
 20
110.4287431325466
 30
0.0
  0
VERTEX
  5
26E
  8
0
 10
207.70376117316019
 20
110.4416490279756
 30
0.0
  0
VERTEX
  5
26F
  8
0
 10
207.71077344539569
 20
110.4543684818976
 30
0.0
  0
VERTEX
  5
270
  8
0
 10
207.71773244862919
 20
110.46688373797861
 30
0.0
  0
VERTEX
  5
271
  8
0
 10
207.72464262194421
 20
110.4791755601901
 30
0.0
  0
VERTEX
  5
272
  8
0
 10
207.73150396534081
 20
110.49122471250359
 30
0.0
  0
VERTEX
  5
273
  8
0
 10
207.73831943820781
 20
110.5030119588906
 30
0.0
  0
VERTEX
  5
274
  8
0
 10
207.74508904054531
 20
110.5145195430171
 30
0.0
  0
VERTEX
  5
275
  8
0
 10
207.75181573174231
 20
110.52572970854909
 30
0.0
  0
VERTEX
  5
276
  8
0
 10
207.75850099149329
 20
110.5366217397636
 30
0.0
  0
VERTEX
  5
277
  8
0
 10
207.7661791262538
 20
110.5489372370871
 30
0.0
  0
VERTEX
  5
278
  8
0
 10
207.77390905032181
 20
110.5612468156326
 30
0.0
  0
VERTEX
  5
279
  8
0
 10
207.78168632461379
 20
110.57354899570549
 30
0.0
  0
VERTEX
  5
27A
  8
0
 10
207.7895094694353
 20
110.5858467366951
 30
0.0
  0
VERTEX
  5
27B
  8
0
 10
207.7973770050917
 20
110.59813707921209
 30
0.0
  0
VERTEX
  5
27C
  8
0
 10
207.80528745188869
 20
110.6104229826456
 30
0.0
  0
VERTEX
  5
27D
  8
0
 10
207.8132408098262
 20
110.62270296730109
 30
0.0
  0
VERTEX
  5
27E
  8
0
 10
207.82123263982081
 20
110.6349785128731
 30
0.0
  0
VERTEX
  5
27F
  8
0
 10
207.82926146217781
 20
110.64725109905611
 30
0.0
  0
VERTEX
  5
280
  8
0
 10
207.83732875659169
 20
110.6595192461556
 30
0.0
  0
VERTEX
  5
281
  8
0
 10
207.84542860428479
 20
110.6717829541716
 30
0.0
  0
VERTEX
  5
282
  8
0
 10
207.85356248495131
 20
110.68404518249309
 30
0.0
  0
VERTEX
  5
283
  8
0
 10
207.86172891889669
 20
110.6963044514256
 30
0.0
  0
VERTEX
  5
284
  8
0
 10
207.86992346703781
 20
110.7085622406636
 30
0.0
  0
VERTEX
  5
285
  8
0
 10
207.87814612937419
 20
110.7208170705126
 30
0.0
  0
VERTEX
  5
286
  8
0
 10
207.88639542621169
 20
110.73307190036159
 30
0.0
  0
VERTEX
  5
287
  8
0
 10
207.89466987785579
 20
110.7453237708216
 30
0.0
  0
VERTEX
  5
288
  8
0
 10
207.90296800461169
 20
110.75757712097609
 30
0.0
  0
VERTEX
  5
289
  8
0
 10
207.91128684709071
 20
110.7698304711306
 30
0.0
  0
VERTEX
  5
28A
  8
0
 10
207.9196249255983
 20
110.78208234159059
 30
0.0
  0
VERTEX
  5
28B
  8
0
 10
207.92798076043979
 20
110.7943356917451
 30
0.0
  0
VERTEX
  5
28C
  8
0
 10
207.93635435161519
 20
110.8065905215941
 30
0.0
  0
VERTEX
  5
28D
  8
0
 10
207.94474273973569
 20
110.81884683113761
 30
0.0
  0
VERTEX
  5
28E
  8
0
 10
207.9531429654123
 20
110.8311061000701
 30
0.0
  0
VERTEX
  5
28F
  8
0
 10
207.96155502864471
 20
110.8433668486971
 30
0.0
  0
VERTEX
  5
290
  8
0
 10
207.96997744973879
 20
110.85562907701861
 30
0.0
  0
VERTEX
  5
291
  8
0
 10
207.9784087489997
 20
110.86789574442361
 30
0.0
  0
VERTEX
  5
292
  8
0
 10
207.98684596703879
 20
110.8801653712176
 30
0.0
  0
VERTEX
  5
293
  8
0
 10
207.99528762416131
 20
110.89243943709511
 30
0.0
  0
VERTEX
  5
294
  8
0
 10
208.00373224067269
 20
110.9047179420561
 30
0.0
  0
VERTEX
  5
295
  8
0
 10
208.0121783368788
 20
110.9170023657951
 30
0.0
  0
VERTEX
  5
296
  8
0
 10
208.02062591277931
 20
110.9292897489231
 30
0.0
  0
VERTEX
  5
297
  8
0
 10
208.02907052929069
 20
110.9415845305236
 30
0.0
  0
VERTEX
  5
298
  8
0
 10
208.03751070671879
 20
110.9538837512076
 30
0.0
  0
VERTEX
  5
299
  8
0
 10
208.0459479247578
 20
110.9661903703641
 30
0.0
  0
VERTEX
  5
29A
  8
0
 10
208.05437626462981
 20
110.9785043879931
 30
0.0
  0
VERTEX
  5
29B
  8
0
 10
208.06279868572369
 20
110.99082432440009
 30
0.0
  0
VERTEX
  5
29C
  8
0
 10
208.07120926926169
 20
111.0031516592796
 30
0.0
  0
VERTEX
  5
29D
  8
0
 10
208.07960801524379
 20
111.0154878723261
 30
0.0
  0
VERTEX
  5
29E
  8
0
 10
208.08799344397531
 20
111.02783296353959
 30
0.0
  0
VERTEX
  5
29F
  8
0
 10
208.09636407576181
 20
111.04018693292009
 30
0.0
  0
VERTEX
  5
2A0
  8
0
 10
208.10471843090869
 20
111.0525497804676
 30
0.0
  0
VERTEX
  5
2A1
  8
0
 10
208.11305502972169
 20
111.0649215061821
 30
0.0
  0
VERTEX
  5
2A2
  8
0
 10
208.1213709128117
 20
111.0773035897581
 30
0.0
  0
VERTEX
  5
2A3
  8
0
 10
208.1296646004842
 20
111.0896975108901
 30
0.0
  0
VERTEX
  5
2A4
  8
0
 10
208.13793461304471
 20
111.1021003101891
 30
0.0
  0
VERTEX
  5
2A5
  8
0
 10
208.1461809504932
 20
111.1145164267386
 30
0.0
  0
VERTEX
  5
2A6
  8
0
 10
208.15440065344069
 20
111.1269429011496
 30
0.0
  0
VERTEX
  5
2A7
  8
0
 10
208.1625907624983
 20
111.13938121311659
 30
0.0
  0
VERTEX
  5
2A8
  8
0
 10
208.1707512776656
 20
111.1518328423341
 30
0.0
  0
VERTEX
  5
2A9
  8
0
 10
208.1788807192487
 20
111.1642977888021
 30
0.0
  0
VERTEX
  5
2AA
  8
0
 10
208.18697760755279
 20
111.1767745728261
 30
0.0
  0
VERTEX
  5
2AB
  8
0
 10
208.19503898318879
 20
111.1892661537951
 30
0.0
  0
VERTEX
  5
2AC
  8
0
 10
208.20306336646229
 20
111.20177105201461
 30
0.0
  0
VERTEX
  5
2AD
  8
0
 10
208.21104927767871
 20
111.2142922268736
 30
0.0
  0
VERTEX
  5
2AE
  8
0
 10
208.21899523714379
 20
111.22682671898311
 30
0.0
  0
VERTEX
  5
2AF
  8
0
 10
208.2268997651627
 20
111.2393774877321
 30
0.0
  0
VERTEX
  5
2B0
  8
0
 10
208.23476138204131
 20
111.2519430534261
 30
0.0
  0
VERTEX
  5
2B1
  8
0
 10
208.2425786080849
 20
111.26452489575961
 30
0.0
  0
VERTEX
  5
2B2
  8
0
 10
208.2503484839043
 20
111.2771244944271
 30
0.0
  0
VERTEX
  5
2B3
  8
0
 10
208.2580710094997
 20
111.2897403697341
 30
0.0
  0
VERTEX
  5
2B4
  8
0
 10
208.2657432254822
 20
111.3023725216806
 30
0.0
  0
VERTEX
  5
2B5
  8
0
 10
208.2733636521572
 20
111.31502390965559
 30
0.0
  0
VERTEX
  5
2B6
  8
0
 10
208.28093080983029
 20
111.32769305396459
 30
0.0
  0
VERTEX
  5
2B7
  8
0
 10
208.28844321880669
 20
111.3403814343021
 30
0.0
  0
VERTEX
  5
2B8
  8
0
 10
208.29590087908679
 20
111.3530875709736
 30
0.0
  0
VERTEX
  5
2B9
  8
0
 10
208.30329787189231
 20
111.36581442336811
 30
0.0
  0
VERTEX
  5
2BA
  8
0
 10
208.3106371566123
 20
111.37856051179109
 30
0.0
  0
VERTEX
  5
2BB
  8
0
 10
208.3179128144688
 20
111.3913273159371
 30
0.0
  0
VERTEX
  5
2BC
  8
0
 10
208.32512780485069
 20
111.40411335611159
 30
0.0
  0
VERTEX
  5
2BD
  8
0
 10
208.33227620898029
 20
111.4169215917035
 30
0.0
  0
VERTEX
  5
2BE
  8
0
 10
208.33935950655169
 20
111.4297505430186
 30
0.0
  0
VERTEX
  5
2BF
  8
0
 10
208.34637325848169
 20
111.4426016897511
 30
0.0
  0
VERTEX
  5
2C0
  8
0
 10
208.3533174647703
 20
111.45547651159561
 30
0.0
  0
VERTEX
  5
2C1
  8
0
 10
208.36019212541731
 20
111.46837204916309
 30
0.0
  0
VERTEX
  5
2C2
  8
0
 10
208.3669913216446
 20
111.4812912618426
 30
0.0
  0
VERTEX
  5
2C3
  8
0
 10
208.37371801284181
 20
111.4942341496341
 30
0.0
  0
VERTEX
  5
2C4
  8
0
 10
208.38036628023019
 20
111.5072007125376
 30
0.0
  0
VERTEX
  5
2C5
  8
0
 10
208.38693760350469
 20
111.5201924302476
 30
0.0
  0
VERTEX
  5
2C6
  8
0
 10
208.3934290232763
 20
111.5332078230696
 30
0.0
  0
VERTEX
  5
2C7
  8
0
 10
208.3998405395449
 20
111.546248370698
 30
0.0
  0
VERTEX
  5
2C8
  8
0
 10
208.40616771322681
 20
111.5593155528276
 30
0.0
  0
VERTEX
  5
2C9
  8
0
 10
208.41241054432231
 20
111.5724078897636
 30
0.0
  0
VERTEX
  5
2CA
  8
0
 10
208.42720748932231
 20
111.5724078897636
 30
0.0
  0
VERTEX
  5
2CB
  8
0
 10
208.42722968473981
 20
111.5575843102626
 30
0.0
  0
VERTEX
  5
2CC
  8
0
 10
208.42729923038129
 20
111.5427622104561
 30
0.0
  0
VERTEX
  5
2CD
  8
0
 10
208.42741168716319
 20
111.5279430700386
 30
0.0
  0
VERTEX
  5
2CE
  8
0
 10
208.42756705508569
 20
111.51312540931561
 30
0.0
  0
VERTEX
  5
2CF
  8
0
 10
208.42776533414869
 20
111.4983092282871
 30
0.0
  0
VERTEX
  5
2D0
  8
0
 10
208.42800356496329
 20
111.483494526953
 30
0.0
  0
VERTEX
  5
2D1
  8
0
 10
208.42828026783479
 20
111.4686813053135
 30
0.0
  0
VERTEX
  5
2D2
  8
0
 10
208.42859544276311
 20
111.4538695633686
 30
0.0
  0
VERTEX
  5
2D3
  8
0
 10
208.42894761005431
 20
111.43905930111811
 30
0.0
  0
VERTEX
  5
2D4
  8
0
 10
208.42933676970779
 20
111.4242505185621
 30
0.0
  0
VERTEX
  5
2D5
  8
0
 10
208.4297584826403
 20
111.40944321570061
 30
0.0
  0
VERTEX
  5
2D6
  8
0
 10
208.4302142285463
 20
111.3946373925336
 30
0.0
  0
VERTEX
  5
2D7
  8
0
 10
208.43070104803681
 20
111.37983304906111
 30
0.0
  0
VERTEX
  5
2D8
  8
0
 10
208.43121894111181
 20
111.3650287055886
 30
0.0
  0
VERTEX
  5
2D9
  8
0
 10
208.43176642807671
 20
111.3502258418106
 30
0.0
  0
VERTEX
  5
2DA
  8
0
 10
208.43234202923711
 20
111.3354259374216
 30
0.0
  0
VERTEX
  5
2DB
  8
0
 10
208.43294426489879
 20
111.3206260330326
 30
0.0
  0
VERTEX
  5
2DC
  8
0
 10
208.43357165536679
 20
111.3058261286436
 30
0.0
  0
VERTEX
  5
2DD
  8
0
 10
208.4342242006413
 20
111.2910291836436
 30
0.0
  0
VERTEX
  5
2DE
  8
0
 10
208.43490042102769
 20
111.2762307589491
 30
0.0
  0
VERTEX
  5
2DF
  8
0
 10
208.4355973571372
 20
111.2614352936436
 30
0.0
  0
VERTEX
  5
2E0
  8
0
 10
208.43631648866429
 20
111.2466398283381
 30
0.0
  0
VERTEX
  5
2E1
  8
0
 10
208.43705337652531
 20
111.2318458427271
 30
0.0
  0
VERTEX
  5
2E2
  8
0
 10
208.43780950041469
 20
111.21705333681059
 30
0.0
  0
VERTEX
  5
2E3
  8
0
 10
208.43858338063819
 20
111.2022593511996
 30
0.0
  0
VERTEX
  5
2E4
  8
0
 10
208.43937205780679
 20
111.1874683249776
 30
0.0
  0
VERTEX
  5
2E5
  8
0
 10
208.4401755319202
 20
111.1726772987556
 30
0.0
  0
VERTEX
  5
2E6
  8
0
 10
208.44099232328429
 20
111.1578862725336
 30
0.0
  0
VERTEX
  5
2E7
  8
0
 10
208.4418209522043
 20
111.1430952463116
 30
0.0
  0
VERTEX
  5
2E8
  8
0
 10
208.44265993898571
 20
111.12830569978399
 30
0.0
  0
VERTEX
  5
2E9
  8
0
 10
208.4435092836288
 20
111.1135176329511
 30
0.0
  0
VERTEX
  5
2EA
  8
0
 10
208.44436750643879
 20
111.09872808642361
 30
0.0
  0
VERTEX
  5
2EB
  8
0
 10
208.44523164802669
 20
111.0839400195906
 30
0.0
  0
VERTEX
  5
2EC
  8
0
 10
208.44610318808731
 20
111.0691534324521
 30
0.0
  0
VERTEX
  5
2ED
  8
0
 10
208.4469776875367
 20
111.05436536561911
 30
0.0
  0
VERTEX
  5
2EE
  8
0
 10
208.44785662606981
 20
111.0395787784806
 30
0.0
  0
VERTEX
  5
2EF
  8
0
 10
208.44873704429719
 20
111.0247907116476
 30
0.0
  0
VERTEX
  5
2F0
  8
0
 10
208.44961894221919
 20
111.010004124509
 30
0.0
  0
VERTEX
  5
2F1
  8
0
 10
208.45050084014119
 20
110.99521753737061
 30
0.0
  0
VERTEX
  5
2F2
  8
0
 10
208.4513812583688
 20
110.9804309502321
 30
0.0
  0
VERTEX
  5
2F3
  8
0
 10
208.4522587172072
 20
110.96564584278811
 30
0.0
  0
VERTEX
  5
2F4
  8
0
 10
208.45313173696229
 20
110.9508592556496
 30
0.0
  0
VERTEX
  5
2F5
  8
0
 10
208.4539988379392
 20
110.9360726685111
 30
0.0
  0
VERTEX
  5
2F6
  8
0
 10
208.45486002013831
 20
110.9212860813726
 30
0.0
  0
VERTEX
  5
2F7
  8
0
 10
208.4557138038648
 20
110.9064994942341
 30
0.0
  0
VERTEX
  5
2F8
  8
0
 10
208.4565587094242
 20
110.8917129070956
 30
0.0
  0
VERTEX
  5
2F9
  8
0
 10
208.45739325712231
 20
110.87692631995709
 30
0.0
  0
VERTEX
  5
2FA
  8
0
 10
208.4582174469588
 20
110.8621382531241
 30
0.0
  0
VERTEX
  5
2FB
  8
0
 10
208.4590268398502
 20
110.8473516659856
 30
0.0
  0
VERTEX
  5
2FC
  8
0
 10
208.45982439518571
 20
110.83256359915261
 30
0.0
  0
VERTEX
  5
2FD
  8
0
 10
208.46060567388179
 20
110.8177755323196
 30
0.0
  0
VERTEX
  5
2FE
  8
0
 10
208.4613706759383
 20
110.80298746548659
 30
0.0
  0
VERTEX
  5
2FF
  8
0
 10
208.46211792166079
 20
110.7881979189591
 30
0.0
  0
VERTEX
  5
300
  8
0
 10
208.46284593135479
 20
110.7734083724316
 30
0.0
  0
VERTEX
  5
301
  8
0
 10
208.4635547050201
 20
110.75861882590399
 30
0.0
  0
VERTEX
  5
302
  8
0
 10
208.46424128326811
 20
110.74382779968209
 30
0.0
  0
VERTEX
  5
303
  8
0
 10
208.46490566609879
 20
110.72903677346009
 30
0.0
  0
VERTEX
  5
304
  8
0
 10
208.4655463738172
 20
110.71424426754361
 30
0.0
  0
VERTEX
  5
305
  8
0
 10
208.46616192672931
 20
110.6994517616271
 30
0.0
  0
VERTEX
  5
306
  8
0
 10
208.4667523248346
 20
110.6846577760161
 30
0.0
  0
VERTEX
  5
307
  8
0
 10
208.4673131290503
 20
110.6698637904051
 30
0.0
  0
VERTEX
  5
308
  8
0
 10
208.4678472987647
 20
110.6550698047941
 30
0.0
  0
VERTEX
  5
309
  8
0
 10
208.46835039489471
 20
110.640272859794
 30
0.0
  0
VERTEX
  5
30A
  8
0
 10
208.46882241744021
 20
110.62547591479409
 30
0.0
  0
VERTEX
  5
30B
  8
0
 10
208.46926188670679
 20
110.61067896979409
 30
0.0
  0
VERTEX
  5
30C
  8
0
 10
208.46966732299981
 20
110.5958790654051
 30
0.0
  0
VERTEX
  5
30D
  8
0
 10
208.4700372466248
 20
110.58107916101611
 30
0.0
  0
VERTEX
  5
30E
  8
0
 10
208.4703731372762
 20
110.5662792566271
 30
0.0
  0
VERTEX
  5
30F
  8
0
 10
208.47066907617631
 20
110.5514763928491
 30
0.0
  0
VERTEX
  5
310
  8
0
 10
208.47092802271371
 20
110.53667352907109
 30
0.0
  0
VERTEX
  5
311
  8
0
 10
208.4711470174997
 20
110.5218677059041
 30
0.0
  0
VERTEX
  5
312
  8
0
 10
208.47132458083971
 20
110.5070618827371
 30
0.0
  0
VERTEX
  5
313
  8
0
 10
208.4714592330393
 20
110.49225457987561
 30
0.0
  0
VERTEX
  5
314
  8
0
 10
208.47155097409811
 20
110.4774457973196
 30
0.0
  0
VERTEX
  5
315
  8
0
 10
208.4715983243222
 20
110.4626370147636
 30
0.0
  0
VERTEX
  5
316
  8
0
 10
208.4715539334872
 20
110.4545889563781
 30
0.0
  0
VERTEX
  5
317
  8
0
 10
208.47142076098231
 20
110.4449635436556
 30
0.0
  0
VERTEX
  5
318
  8
0
 10
208.47122544130829
 20
110.4338983881846
 30
0.0
  0
VERTEX
  5
319
  8
0
 10
208.47099460896629
 20
110.42153406094261
 30
0.0
  0
VERTEX
  5
31A
  8
0
 10
208.47075785784611
 20
110.4080052141291
 30
0.0
  0
VERTEX
  5
31B
  8
0
 10
208.4705433021438
 20
110.3934509390271
 30
0.0
  0
VERTEX
  5
31C
  8
0
 10
208.47037757635971
 20
110.3780088472251
 30
0.0
  0
VERTEX
  5
31D
  8
0
 10
208.4702902743843
 20
110.36181803000611
 30
0.0
  0
VERTEX
  5
31E
  8
0
 10
208.4703095104127
 20
110.3450160989586
 30
0.0
  0
VERTEX
  5
31F
  8
0
 10
208.47046043925181
 20
110.3277406656711
 30
0.0
  0
VERTEX
  5
320
  8
0
 10
208.4707756141803
 20
110.31012934173199
 30
0.0
  0
VERTEX
  5
321
  8
0
 10
208.47127871031029
 20
110.2923212184246
 30
0.0
  0
VERTEX
  5
322
  8
0
 10
208.4720008012261
 20
110.2744524276426
 30
0.0
  0
VERTEX
  5
323
  8
0
 10
208.47296852142929
 20
110.2566635403636
 30
0.0
  0
VERTEX
  5
324
  8
0
 10
208.47421146480929
 20
110.2390906884816
 30
0.0
  0
VERTEX
  5
325
  8
0
 10
208.4757547861729
 20
110.2218714835851
 30
0.0
  0
VERTEX
  5
326
  8
0
 10
208.4776295591042
 20
110.2051450169571
 30
0.0
  0
VERTEX
  5
327
  8
0
 10
208.4798609384103
 20
110.18904890018609
 30
0.0
  0
VERTEX
  5
328
  8
0
 10
208.48247999767531
 20
110.17372222455511
 30
0.0
  0
VERTEX
  5
329
  8
0
 10
208.48551189170581
 20
110.1592996422636
 30
0.0
  0
VERTEX
  5
32A
  8
0
 10
208.48898621439179
 20
110.1459232039836
 30
0.0
  0
VERTEX
  5
32B
  8
0
 10
208.4929310799287
 20
110.1337275619146
 30
0.0
  0
VERTEX
  5
32C
  8
0
 10
208.49737460251231
 20
110.1228532870341
 30
0.0
  0
VERTEX
  5
32D
  8
0
 10
208.5023448963378
 20
110.1134365112361
 30
0.0
  0
VERTEX
  5
32E
  8
0
 10
208.5078685959063
 20
110.1056163258036
 30
0.0
  0
VERTEX
  5
32F
  8
0
 10
208.5139752951078
 20
110.0995303423251
 30
0.0
  0
VERTEX
  5
330
  8
0
 10
208.52069310813781
 20
110.0953161723891
 30
0.0
  0
VERTEX
  5
331
  8
0
 10
208.5335457345648
 20
110.0914334540211
 30
0.0
  0
VERTEX
  5
332
  8
0
 10
208.54636136862931
 20
110.0912070607626
 30
0.0
  0
VERTEX
  5
333
  8
0
 10
208.55902755354921
 20
110.0940643508421
 30
0.0
  0
VERTEX
  5
334
  8
0
 10
208.57143479193181
 20
110.09942972309911
 30
0.0
  0
VERTEX
  5
335
  8
0
 10
208.58347654577281
 20
110.1067320154566
 30
0.0
  0
VERTEX
  5
336
  8
0
 10
208.59504183798481
 20
110.1153941470596
 30
0.0
  0
VERTEX
  5
337
  8
0
 10
208.60602265086919
 20
110.12484495583099
 30
0.0
  0
VERTEX
  5
338
  8
0
 10
208.61630948703319
 20
110.13450884061059
 30
0.0
  0
VERTEX
  5
339
  8
0
 10
208.62579284908369
 20
110.1438131596266
 30
0.0
  0
VERTEX
  5
33A
  8
0
 10
208.63436471932229
 20
110.1521852711076
 30
0.0
  0
VERTEX
  5
33B
  8
0
 10
208.64537216670769
 20
110.1628035588396
 30
0.0
  0
VERTEX
  5
33C
  8
0
 10
208.65626567761669
 20
110.1735224657976
 30
0.0
  0
VERTEX
  5
33D
  8
0
 10
208.66705708960529
 20
110.1843331138146
 30
0.0
  0
VERTEX
  5
33E
  8
0
 10
208.67775232145129
 20
110.19522810441811
 30
0.0
  0
VERTEX
  5
33F
  8
0
 10
208.6883617310161
 20
110.20619855944111
 30
0.0
  0
VERTEX
  5
340
  8
0
 10
208.69889567616181
 20
110.21723560071661
 30
0.0
  0
VERTEX
  5
341
  8
0
 10
208.70936303505479
 20
110.2283318297721
 30
0.0
  0
VERTEX
  5
342
  8
0
 10
208.71977120616779
 20
110.2394798481351
 30
0.0
  0
VERTEX
  5
343
  8
0
 10
208.7301320270567
 20
110.2506707776386
 30
0.0
  0
VERTEX
  5
344
  8
0
 10
208.7404514164997
 20
110.26189721981009
 30
0.0
  0
VERTEX
  5
345
  8
0
 10
208.7507412120527
 20
110.2731517761771
 30
0.0
  0
VERTEX
  5
346
  8
0
 10
208.7610102918828
 20
110.2844240888781
 30
0.0
  0
VERTEX
  5
347
  8
0
 10
208.7712660544621
 20
110.29570675944061
 30
0.0
  0
VERTEX
  5
348
  8
0
 10
208.7815203373473
 20
110.3069938690866
 30
0.0
  0
VERTEX
  5
349
  8
0
 10
208.79178053901029
 20
110.3182750599546
 30
0.0
  0
VERTEX
  5
34A
  8
0
 10
208.80205553761829
 20
110.3295429335721
 30
0.0
  0
VERTEX
  5
34B
  8
0
 10
208.81235569103279
 20
110.3407900914666
 30
0.0
  0
VERTEX
  5
34C
  8
0
 10
208.8226898774208
 20
110.3520076554711
 30
0.0
  0
VERTEX
  5
34D
  8
0
 10
208.83306697494919
 20
110.3631882271131
 30
0.0
  0
VERTEX
  5
34E
  8
0
 10
208.8434973414798
 20
110.3743229282256
 30
0.0
  0
VERTEX
  5
34F
  8
0
 10
208.8539883754847
 20
110.3854043603361
 30
0.0
  0
VERTEX
  5
350
  8
0
 10
208.8645504348257
 20
110.39642364527759
 30
0.0
  0
VERTEX
  5
351
  8
0
 10
208.87519239766979
 20
110.4073733845776
 30
0.0
  0
VERTEX
  5
352
  8
0
 10
208.88592314218371
 20
110.4182461797636
 30
0.0
  0
VERTEX
  5
353
  8
0
 10
208.8963934604657
 20
110.4287771655201
 30
0.0
  0
VERTEX
  5
354
  8
0
 10
208.9068519411918
 20
110.43931998883259
 30
0.0
  0
VERTEX
  5
355
  8
0
 10
208.9173015437508
 20
110.4498746497011
 30
0.0
  0
VERTEX
  5
356
  8
0
 10
208.9277393087537
 20
110.4604381887366
 30
0.0
  0
VERTEX
  5
357
  8
0
 10
208.93816671589519
 20
110.4710120856336
 30
0.0
  0
VERTEX
  5
358
  8
0
 10
208.9485852448698
 20
110.4815963403921
 30
0.0
  0
VERTEX
  5
359
  8
0
 10
208.9589919362881
 20
110.49218947331759
 30
0.0
  0
VERTEX
  5
35A
  8
0
 10
208.9693912292343
 20
110.5027929641046
 30
0.0
  0
VERTEX
  5
35B
  8
0
 10
208.97977868462431
 20
110.5134053330586
 30
0.0
  0
VERTEX
  5
35C
  8
0
 10
208.99015874154171
 20
110.5240280598741
 30
0.0
  0
VERTEX
  5
35D
  8
0
 10
209.00052844059769
 20
110.5346581851621
 30
0.0
  0
VERTEX
  5
35E
  8
0
 10
209.0108907411813
 20
110.5452971886171
 30
0.0
  0
VERTEX
  5
35F
  8
0
 10
209.02124416359769
 20
110.5559450702391
 30
0.0
  0
VERTEX
  5
360
  8
0
 10
209.03158870784711
 20
110.5666003503336
 30
0.0
  0
VERTEX
  5
361
  8
0
 10
209.0419243739297
 20
110.57726450859511
 30
0.0
  0
VERTEX
  5
362
  8
0
 10
209.0522526415397
 20
110.5879360653291
 30
0.0
  0
VERTEX
  5
363
  8
0
 10
209.0625735106772
 20
110.5986150205356
 30
0.0
  0
VERTEX
  5
364
  8
0
 10
209.07288698134221
 20
110.6093013742146
 30
0.0
  0
VERTEX
  5
365
  8
0
 10
209.0831930535347
 20
110.61999512636611
 30
0.0
  0
VERTEX
  5
366
  8
0
 10
209.0934917272547
 20
110.63069627698999
 30
0.0
  0
VERTEX
  5
367
  8
0
 10
209.10378448219669
 20
110.6414033463921
 30
0.0
  0
VERTEX
  5
368
  8
0
 10
209.11406983866621
 20
110.6521163345721
 30
0.0
  0
VERTEX
  5
369
  8
0
 10
209.12434927635769
 20
110.66283672122459
 30
0.0
  0
VERTEX
  5
36A
  8
0
 10
209.13462131557679
 20
110.6735630266551
 30
0.0
  0
VERTEX
  5
36B
  8
0
 10
209.1448889157121
 20
110.6842952508636
 30
0.0
  0
VERTEX
  5
36C
  8
0
 10
209.15514911737529
 20
110.6950333938501
 30
0.0
  0
VERTEX
  5
36D
  8
0
 10
209.16540487995479
 20
110.7057759759201
 30
0.0
  0
VERTEX
  5
36E
  8
0
 10
209.1756547237562
 20
110.7165244767681
 30
0.0
  0
VERTEX
  5
36F
  8
0
 10
209.1859001284742
 20
110.72727741669959
 30
0.0
  0
VERTEX
  5
370
  8
0
 10
209.19614109410881
 20
110.7380362754091
 30
0.0
  0
VERTEX
  5
371
  8
0
 10
209.20637614096529
 20
110.7487980935076
 30
0.0
  0
VERTEX
  5
372
  8
0
 10
209.2166067487382
 20
110.7595658303841
 30
0.0
  0
VERTEX
  5
373
  8
0
 10
209.2268343971221
 20
110.7703365266496
 30
0.0
  0
VERTEX
  5
374
  8
0
 10
209.23705612672831
 20
110.78111166199859
 30
0.0
  0
VERTEX
  5
375
  8
0
 10
209.2472763766398
 20
110.79188975673659
 30
0.0
  0
VERTEX
  5
376
  8
0
 10
209.2574907077732
 20
110.80267229055811
 30
0.0
  0
VERTEX
  5
377
  8
0
 10
209.26770355921229
 20
110.8134577837686
 30
0.0
  0
VERTEX
  5
378
  8
0
 10
209.2779119715677
 20
110.8242462363681
 30
0.0
  0
VERTEX
  5
379
  8
0
 10
209.28811742453411
 20
110.8350376483566
 30
0.0
  0
VERTEX
  5
37A
  8
0
 10
209.29832139780629
 20
110.8458320197341
 30
0.0
  0
VERTEX
  5
37B
  8
0
 10
209.3085224116893
 20
110.8566293505006
 30
0.0
  0
VERTEX
  5
37C
  8
0
 10
209.31872046618329
 20
110.86742816096159
 30
0.0
  0
VERTEX
  5
37D
  8
0
 10
209.3289170409827
 20
110.8782284511171
 30
0.0
  0
VERTEX
  5
37E
  8
0
 10
209.33911065639319
 20
110.8890302209671
 30
0.0
  0
VERTEX
  5
37F
  8
0
 10
209.3493042718037
 20
110.899834950206
 30
0.0
  0
VERTEX
  5
380
  8
0
 10
209.3594949278253
 20
110.9106396794451
 30
0.0
  0
VERTEX
  5
381
  8
0
 10
209.3696855838468
 20
110.9214473680731
 30
0.0
  0
VERTEX
  5
382
  8
0
 10
209.37987476017369
 20
110.93225357700661
 30
0.0
  0
VERTEX
  5
383
  8
0
 10
209.39006245680631
 20
110.9430627453291
 30
0.0
  0
VERTEX
  5
384
  8
0
 10
209.40025015343869
 20
110.95387043395711
 30
0.0
  0
VERTEX
  5
385
  8
0
 10
209.41043785007119
 20
110.9646796022796
 30
0.0
  0
VERTEX
  5
386
  8
0
 10
209.42062554670369
 20
110.9754887706021
 30
0.0
  0
VERTEX
  5
387
  8
0
 10
209.4308132433361
 20
110.98629793892459
 30
0.0
  0
VERTEX
  5
388
  8
0
 10
209.4410009399688
 20
110.9971056275526
 30
0.0
  0
VERTEX
  5
389
  8
0
 10
209.45118863660119
 20
111.00791331618061
 30
0.0
  0
VERTEX
  5
38A
  8
0
 10
209.4613778129283
 20
111.0187210048086
 30
0.0
  0
VERTEX
  5
38B
  8
0
 10
209.4715684689497
 20
111.0295272137421
 30
0.0
  0
VERTEX
  5
38C
  8
0
 10
209.48175912497129
 20
111.0403319429811
 30
0.0
  0
VERTEX
  5
38D
  8
0
 10
209.49195274038169
 20
111.05113519252561
 30
0.0
  0
VERTEX
  5
38E
  8
0
 10
209.50214635579229
 20
111.0619369623756
 30
0.0
  0
VERTEX
  5
38F
  8
0
 10
209.5123429305917
 20
111.0727372525311
 30
0.0
  0
VERTEX
  5
390
  8
0
 10
209.5225409850857
 20
111.08353458329761
 30
0.0
  0
VERTEX
  5
391
  8
0
 10
209.53274199896879
 20
111.0943304343696
 30
0.0
  0
VERTEX
  5
392
  8
0
 10
209.5429444925463
 20
111.10512332605261
 30
0.0
  0
VERTEX
  5
393
  8
0
 10
209.55314994551281
 20
111.11591325834659
 30
0.0
  0
VERTEX
  5
394
  8
0
 10
209.56335835786831
 20
111.1267002312516
 30
0.0
  0
VERTEX
  5
395
  8
0
 10
209.5735697296127
 20
111.13748424476761
 30
0.0
  0
VERTEX
  5
396
  8
0
 10
209.58378554044069
 20
111.1482652988946
 30
0.0
  0
VERTEX
  5
397
  8
0
 10
209.59400431065771
 20
111.1590419139381
 30
0.0
  0
VERTEX
  5
398
  8
0
 10
209.6042260402638
 20
111.1698155695926
 30
0.0
  0
VERTEX
  5
399
  8
0
 10
209.61445368864781
 20
111.18058478616361
 30
0.0
  0
VERTEX
  5
39A
  8
0
 10
209.62468429642081
 20
111.1913495636511
 30
0.0
  0
VERTEX
  5
39B
  8
0
 10
209.6349193432772
 20
111.2021099020551
 30
0.0
  0
VERTEX
  5
39C
  8
0
 10
209.64515882921719
 20
111.2128658013756
 30
0.0
  0
VERTEX
  5
39D
  8
0
 10
209.65540275424081
 20
111.2236172616126
 30
0.0
  0
VERTEX
  5
39E
  8
0
 10
209.6656525980423
 20
111.2343628030716
 30
0.0
  0
VERTEX
  5
39F
  8
0
 10
209.67590836062169
 20
111.2451039054471
 30
0.0
  0
VERTEX
  5
3A0
  8
0
 10
209.68616856228471
 20
111.2558390890446
 30
0.0
  0
VERTEX
  5
3A1
  8
0
 10
209.69643468272579
 20
111.2665683538641
 30
0.0
  0
VERTEX
  5
3A2
  8
0
 10
209.70670672194481
 20
111.2772916999056
 30
0.0
  0
VERTEX
  5
3A3
  8
0
 10
209.71698615963629
 20
111.2880091271691
 30
0.0
  0
VERTEX
  5
3A4
  8
0
 10
209.72727003641131
 20
111.2987206356546
 30
0.0
  0
VERTEX
  5
3A5
  8
0
 10
209.7375627913533
 20
111.3094247456676
 30
0.0
  0
VERTEX
  5
3A6
  8
0
 10
209.7478599853788
 20
111.3201214572081
 30
0.0
  0
VERTEX
  5
3A7
  8
0
 10
209.75816605757129
 20
111.33081224997061
 30
0.0
  0
VERTEX
  5
3A8
  8
0
 10
209.76847804854179
 20
111.3414956442606
 30
0.0
  0
VERTEX
  5
3A9
  8
0
 10
209.7787989176793
 20
111.3521716400781
 30
0.0
  0
VERTEX
  5
3AA
  8
0
 10
209.78912718528929
 20
111.3628387577286
 30
0.0
  0
VERTEX
  5
3AB
  8
0
 10
209.79946285137169
 20
111.3734984769066
 30
0.0
  0
VERTEX
  5
3AC
  8
0
 10
209.80980591592669
 20
111.38415079761209
 30
0.0
  0
VERTEX
  5
3AD
  8
0
 10
209.8201578586488
 20
111.3947942401506
 30
0.0
  0
VERTEX
  5
3AE
  8
0
 10
209.8305186795377
 20
111.40543028421661
 30
0.0
  0
VERTEX
  5
3AF
  8
0
 10
209.8408883785936
 20
111.4160559704211
 30
0.0
  0
VERTEX
  5
3B0
  8
0
 10
209.8512669558167
 20
111.4266742581531
 30
0.0
  0
VERTEX
  5
3B1
  8
0
 10
209.86165589090129
 20
111.4372821880236
 30
0.0
  0
VERTEX
  5
3B2
  8
0
 10
209.87205222445829
 20
111.4478812397271
 30
0.0
  0
VERTEX
  5
3B3
  8
0
 10
209.88246039557129
 20
111.45846993356911
 30
0.0
  0
VERTEX
  5
3B4
  8
0
 10
209.89287596515661
 20
111.46904974924411
 30
0.0
  0
VERTEX
  5
3B5
  8
0
 10
209.90330337229821
 20
111.4796192070576
 30
0.0
  0
VERTEX
  5
3B6
  8
0
 10
209.91374113730129
 20
111.4901783070096
 30
0.0
  0
VERTEX
  5
3B7
  8
0
 10
209.9241877804713
 20
111.50072704910011
 30
0.0
  0
VERTEX
  5
3B8
  8
0
 10
209.9346462611972
 20
111.5112654333291
 30
0.0
  0
VERTEX
  5
3B9
  8
0
 10
209.94511657947919
 20
111.52179198000211
 30
0.0
  0
VERTEX
  5
3BA
  8
0
 10
209.95559725562279
 20
111.5323081688136
 30
0.0
  0
VERTEX
  5
3BB
  8
0
 10
209.9660897693222
 20
111.5428139997636
 30
0.0
  0
VERTEX
  5
3BC
  8
0
 10
209.96404779091219
 20
111.5281753820751
 30
0.0
  0
VERTEX
  5
3BD
  8
0
 10
209.96187116030279
 20
111.51353972377559
 30
0.0
  0
VERTEX
  5
3BE
  8
0
 10
209.9595657962717
 20
111.4989070248651
 30
0.0
  0
VERTEX
  5
3BF
  8
0
 10
209.9571331785138
 20
111.4842758056491
 30
0.0
  0
VERTEX
  5
3C0
  8
0
 10
209.95457774611231
 20
111.4696490255166
 30
0.0
  0
VERTEX
  5
3C1
  8
0
 10
209.9519054178453
 20
111.4550237250786
 30
0.0
  0
VERTEX
  5
3C2
  8
0
 10
209.94911767340719
 20
111.4404013840296
 30
0.0
  0
VERTEX
  5
3C3
  8
0
 10
209.9462219112707
 20
111.42578348206411
 30
0.0
  0
VERTEX
  5
3C4
  8
0
 10
209.94321813143571
 20
111.4111670597931
 30
0.0
  0
VERTEX
  5
3C5
  8
0
 10
209.94011373237481
 20
111.39655507660559
 30
0.0
  0
VERTEX
  5
3C6
  8
0
 10
209.93691167347669
 20
111.38194605280709
 30
0.0
  0
VERTEX
  5
3C7
  8
0
 10
209.9336149141306
 20
111.36734146809211
 30
0.0
  0
VERTEX
  5
3C8
  8
0
 10
209.9302293731148
 20
111.3527413224606
 30
0.0
  0
VERTEX
  5
3C9
  8
0
 10
209.92675948951239
 20
111.33814413621811
 30
0.0
  0
VERTEX
  5
3CA
  8
0
 10
209.9232067430178
 20
111.32355138905911
 30
0.0
  0
VERTEX
  5
3CB
  8
0
 10
209.91957705240929
 20
111.3089616012891
 30
0.0
  0
VERTEX
  5
3CC
  8
0
 10
209.9158733770758
 20
111.29437773229709
 30
0.0
  0
VERTEX
  5
3CD
  8
0
 10
209.9121016357953
 20
111.2797968226941
 30
0.0
  0
VERTEX
  5
3CE
  8
0
 10
209.90826330826229
 20
111.2652218318691
 30
0.0
  0
VERTEX
  5
3CF
  8
0
 10
209.90436579294931
 20
111.2506512801276
 30
0.0
  0
VERTEX
  5
3D0
  8
0
 10
209.90041056955079
 20
111.2360851674696
 30
0.0
  0
VERTEX
  5
3D1
  8
0
 10
209.89640207715021
 20
111.2215249735896
 30
0.0
  0
VERTEX
  5
3D2
  8
0
 10
209.89234623452569
 20
111.20696921879311
 30
0.0
  0
VERTEX
  5
3D3
  8
0
 10
209.8882445213718
 20
111.1924193827746
 30
0.0
  0
VERTEX
  5
3D4
  8
0
 10
209.8841013767717
 20
111.1778739858396
 30
0.0
  0
VERTEX
  5
3D5
  8
0
 10
209.8799227195037
 20
111.1633359873771
 30
0.0
  0
VERTEX
  5
3D6
  8
0
 10
209.87571150895681
 20
111.14880242799811
 30
0.0
  0
VERTEX
  5
3D7
  8
0
 10
209.8714721842143
 20
111.1342747873971
 30
0.0
  0
VERTEX
  5
3D8
  8
0
 10
209.86720918435981
 20
111.1197530655741
 30
0.0
  0
VERTEX
  5
3D9
  8
0
 10
209.86292546878229
 20
111.1052372625291
 30
0.0
  0
VERTEX
  5
3DA
  8
0
 10
209.85862547656529
 20
111.0907273782621
 30
0.0
  0
VERTEX
  5
3DB
  8
0
 10
209.85431216709779
 20
111.07622489246759
 30
0.0
  0
VERTEX
  5
3DC
  8
0
 10
209.8499929388523
 20
111.0617283254511
 30
0.0
  0
VERTEX
  5
3DD
  8
0
 10
209.84566927152329
 20
111.04723767721261
 30
0.0
  0
VERTEX
  5
3DE
  8
0
 10
209.84134560419429
 20
111.0327544274466
 30
0.0
  0
VERTEX
  5
3DF
  8
0
 10
209.83702489625429
 20
111.01827857615309
 30
0.0
  0
VERTEX
  5
3E0
  8
0
 10
209.83271454617579
 20
111.0038101233321
 30
0.0
  0
VERTEX
  5
3E1
  8
0
 10
209.82841603365321
 20
110.9893475892891
 30
0.0
  0
VERTEX
  5
3E2
  8
0
 10
209.8241337977702
 20
110.9748924537186
 30
0.0
  0
VERTEX
  5
3E3
  8
0
 10
209.81987227761019
 20
110.9604461963151
 30
0.0
  0
VERTEX
  5
3E4
  8
0
 10
209.81563443256229
 20
110.9460058576896
 30
0.0
  0
VERTEX
  5
3E5
  8
0
 10
209.81142618140419
 20
110.9315743972311
 30
0.0
  0
VERTEX
  5
3E6
  8
0
 10
209.80725196321961
 20
110.9171503352451
 30
0.0
  0
VERTEX
  5
3E7
  8
0
 10
209.8031132577033
 20
110.9027351514261
 30
0.0
  0
VERTEX
  5
3E8
  8
0
 10
209.7990159836327
 20
110.8883258863851
 30
0.0
  0
VERTEX
  5
3E9
  8
0
 10
209.7949631003973
 20
110.87392697920561
 30
0.0
  0
VERTEX
  5
3EA
  8
0
 10
209.79096052677471
 20
110.8595354704986
 30
0.0
  0
VERTEX
  5
3EB
  8
0
 10
209.78700974245979
 20
110.8451528399586
 30
0.0
  0
VERTEX
  5
3EC
  8
0
 10
209.78311814592479
 20
110.8307790875856
 30
0.0
  0
VERTEX
  5
3ED
  8
0
 10
209.77928721686419
 20
110.8164142133796
 30
0.0
  0
VERTEX
  5
3EE
  8
0
 10
209.77552139436179
 20
110.8020567376461
 30
0.0
  0
VERTEX
  5
3EF
  8
0
 10
209.7718251175007
 20
110.78770961977411
 30
0.0
  0
VERTEX
  5
3F0
  8
0
 10
209.7682028253648
 20
110.7733728597636
 30
0.0
  0
VERTEX
  5
3F1
  8
0
 10
209.76457905353419
 20
110.7589310414436
 30
0.0
  0
VERTEX
  5
3F2
  8
0
 10
209.76093604567529
 20
110.7444951419016
 30
0.0
  0
VERTEX
  5
3F3
  8
0
 10
209.7572738017877
 20
110.7300636814431
 30
0.0
  0
VERTEX
  5
3F4
  8
0
 10
209.75359084217729
 20
110.7156366600681
 30
0.0
  0
VERTEX
  5
3F5
  8
0
 10
209.74989160592719
 20
110.7012155574711
 30
0.0
  0
VERTEX
  5
3F6
  8
0
 10
209.74617461334319
 20
110.68679593456859
 30
0.0
  0
VERTEX
  5
3F7
  8
0
 10
209.7424413441197
 20
110.6723822304441
 30
0.0
  0
VERTEX
  5
3F8
  8
0
 10
209.7386917982567
 20
110.6579700060141
 30
0.0
  0
VERTEX
  5
3F9
  8
0
 10
209.73492893514319
 20
110.64356370036199
 30
0.0
  0
VERTEX
  5
3FA
  8
0
 10
209.7311527547792
 20
110.6291588744046
 30
0.0
  0
VERTEX
  5
3FB
  8
0
 10
209.72736473685919
 20
110.6147570078361
 30
0.0
  0
VERTEX
  5
3FC
  8
0
 10
209.72356340168869
 20
110.60035810065661
 30
0.0
  0
VERTEX
  5
3FD
  8
0
 10
209.71975318835129
 20
110.5859621528661
 30
0.0
  0
VERTEX
  5
3FE
  8
0
 10
209.7159311374578
 20
110.57156916446461
 30
0.0
  0
VERTEX
  5
3FF
  8
0
 10
209.71210168809179
 20
110.5571776557576
 30
0.0
  0
VERTEX
  5
400
  8
0
 10
209.70826484025329
 20
110.5427876267451
 30
0.0
  0
VERTEX
  5
401
  8
0
 10
209.7044205939421
 20
110.5284005571216
 30
0.0
  0
VERTEX
  5
402
  8
0
 10
209.70056894915879
 20
110.5140134874981
 30
0.0
  0
VERTEX
  5
403
  8
0
 10
209.69671286529169
 20
110.4996293772636
 30
0.0
  0
VERTEX
  5
404
  8
0
 10
209.69285382203569
 20
110.4852452670291
 30
0.0
  0
VERTEX
  5
405
  8
0
 10
209.68899033969629
 20
110.4708626364891
 30
0.0
  0
VERTEX
  5
406
  8
0
 10
209.68512389796771
 20
110.4564800059491
 30
0.0
  0
VERTEX
  5
407
  8
0
 10
209.6812559765448
 20
110.44209737540911
 30
0.0
  0
VERTEX
  5
408
  8
0
 10
209.6773880551217
 20
110.4277162245636
 30
0.0
  0
VERTEX
  5
409
  8
0
 10
209.67352161339329
 20
110.4133350737181
 30
0.0
  0
VERTEX
  5
40A
  8
0
 10
209.6696551716648
 20
110.3989524431781
 30
0.0
  0
VERTEX
  5
40B
  8
0
 10
209.6657902096307
 20
110.38457129233259
 30
0.0
  0
VERTEX
  5
40C
  8
0
 10
209.66192968668031
 20
110.37018718209811
 30
0.0
  0
VERTEX
  5
40D
  8
0
 10
209.6580721231187
 20
110.35580455155809
 30
0.0
  0
VERTEX
  5
40E
  8
0
 10
209.65422047833519
 20
110.34142044132361
 30
0.0
  0
VERTEX
  5
40F
  8
0
 10
209.6503747523299
 20
110.3270333717001
 30
0.0
  0
VERTEX
  5
410
  8
0
 10
209.6465349451023
 20
110.3126463020766
 30
0.0
  0
VERTEX
  5
411
  8
0
 10
209.6427025363472
 20
110.2982577527586
 30
0.0
  0
VERTEX
  5
412
  8
0
 10
209.6388804854538
 20
110.283867723746
 30
0.0
  0
VERTEX
  5
413
  8
0
 10
209.6350658330328
 20
110.2694747353446
 30
0.0
  0
VERTEX
  5
414
  8
0
 10
209.6312630181678
 20
110.2550802672486
 30
0.0
  0
VERTEX
  5
415
  8
0
 10
209.62747204085881
 20
110.24068283976359
 30
0.0
  0
VERTEX
  5
416
  8
0
 10
209.62443126866131
 20
110.23024655445511
 30
0.0
  0
VERTEX
  5
417
  8
0
 10
209.62058702235021
 20
110.2185688054611
 30
0.0
  0
VERTEX
  5
418
  8
0
 10
209.61615533732279
 20
110.2058449124556
 30
0.0
  0
VERTEX
  5
419
  8
0
 10
209.61135816775379
 20
110.192268715418
 30
0.0
  0
VERTEX
  5
41A
  8
0
 10
209.60641302873481
 20
110.1780355340226
 30
0.0
  0
VERTEX
  5
41B
  8
0
 10
209.60154039474619
 20
110.1633406879431
 30
0.0
  0
VERTEX
  5
41C
  8
0
 10
209.59695926057429
 20
110.1483780171591
 30
0.0
  0
VERTEX
  5
41D
  8
0
 10
209.59288862100479
 20
110.1333443210391
 30
0.0
  0
VERTEX
  5
41E
  8
0
 10
209.5895504302128
 20
110.11843343956259
 30
0.0
  0
VERTEX
  5
41F
  8
0
 10
209.58716220328969
 20
110.1038392127091
 30
0.0
  0
VERTEX
  5
420
  8
0
 10
209.58594441471621
 20
110.0897569601526
 30
0.0
  0
VERTEX
  5
421
  8
0
 10
209.58611457958369
 20
110.0763820015671
 30
0.0
  0
VERTEX
  5
422
  8
0
 10
209.58789465206729
 20
110.06390965662661
 30
0.0
  0
VERTEX
  5
423
  8
0
 10
209.5915021472583
 20
110.0525352450051
 30
0.0
  0
VERTEX
  5
424
  8
0
 10
209.5971590193318
 20
110.0424526066821
 30
0.0
  0
VERTEX
  5
425
  8
0
 10
209.60536984411229
 20
110.0334886174011
 30
0.0
  0
VERTEX
  5
426
  8
0
 10
209.61525124398329
 20
110.02671457598009
 30
0.0
  0
VERTEX
  5
427
  8
0
 10
209.6265664678246
 20
110.0219218454946
 30
0.0
  0
VERTEX
  5
428
  8
0
 10
209.63908172390569
 20
110.0189003093256
 30
0.0
  0
VERTEX
  5
429
  8
0
 10
209.65256026110629
 20
110.01744133054861
 30
0.0
  0
VERTEX
  5
42A
  8
0
 10
209.66676680800069
 20
110.01733627223911
 30
0.0
  0
VERTEX
  5
42B
  8
0
 10
209.6814646134693
 20
110.0183764974726
 30
0.0
  0
VERTEX
  5
42C
  8
0
 10
209.6964198857807
 20
110.0203504099356
 30
0.0
  0
VERTEX
  5
42D
  8
0
 10
209.7113973535098
 20
110.0230508523981
 30
0.0
  0
VERTEX
  5
42E
  8
0
 10
209.72616026553621
 20
110.0262691879356
 30
0.0
  0
VERTEX
  5
42F
  8
0
 10
209.74047483012919
 20
110.02979529992911
 30
0.0
  0
VERTEX
  5
430
  8
0
 10
209.7541028164743
 20
110.0334190717596
 30
0.0
  0
VERTEX
  5
431
  8
0
 10
209.76681191253471
 20
110.0369333461971
 30
0.0
  0
VERTEX
  5
432
  8
0
 10
209.7783638874962
 20
110.0401294863171
 30
0.0
  0
VERTEX
  5
433
  8
0
 10
209.7885264293223
 20
110.04279589580609
 30
0.0
  0
VERTEX
  5
434
  8
0
 10
209.80307034656281
 20
110.0464433427486
 30
0.0
  0
VERTEX
  5
435
  8
0
 10
209.81759058869119
 20
110.0501514571656
 30
0.0
  0
VERTEX
  5
436
  8
0
 10
209.83209011509669
 20
110.0539187593626
 30
0.0
  0
VERTEX
  5
437
  8
0
 10
209.8465659663903
 20
110.0577437696451
 30
0.0
  0
VERTEX
  5
438
  8
0
 10
209.86102258165519
 20
110.0616250083186
 30
0.0
  0
VERTEX
  5
439
  8
0
 10
209.87545996089179
 20
110.0655609956886
 30
0.0
  0
VERTEX
  5
43A
  8
0
 10
209.8898766244051
 20
110.0695487723661
 30
0.0
  0
VERTEX
  5
43B
  8
0
 10
209.90427701127919
 20
110.0735868586566
 30
0.0
  0
VERTEX
  5
43C
  8
0
 10
209.91865816212481
 20
110.07767525456011
 30
0.0
  0
VERTEX
  5
43D
  8
0
 10
209.93302451602531
 20
110.0818095209931
 30
0.0
  0
VERTEX
  5
43E
  8
0
 10
209.9473745932863
 20
110.08598965795559
 30
0.0
  0
VERTEX
  5
43F
  8
0
 10
209.9617098736021
 20
110.0902141857531
 30
0.0
  0
VERTEX
  5
440
  8
0
 10
209.9760318366676
 20
110.0944816246911
 30
0.0
  0
VERTEX
  5
441
  8
0
 10
209.99034048248279
 20
110.0987875356861
 30
0.0
  0
VERTEX
  5
442
  8
0
 10
210.00463729074181
 20
110.1031333984326
 30
0.0
  0
VERTEX
  5
443
  8
0
 10
210.0189222614448
 20
110.10751773323609
 30
0.0
  0
VERTEX
  5
444
  8
0
 10
210.0331968742862
 20
110.1119361010131
 30
0.0
  0
VERTEX
  5
445
  8
0
 10
210.04746260896059
 20
110.11638850176359
 30
0.0
  0
VERTEX
  5
446
  8
0
 10
210.06171946546829
 20
110.1208719760986
 30
0.0
  0
VERTEX
  5
447
  8
0
 10
210.0759689235033
 20
110.1253865240181
 30
0.0
  0
VERTEX
  5
448
  8
0
 10
210.0902095033712
 20
110.1299306658276
 30
0.0
  0
VERTEX
  5
449
  8
0
 10
210.1044456441557
 20
110.1344999624436
 30
0.0
  0
VERTEX
  5
44A
  8
0
 10
210.11867586616231
 20
110.13909589356059
 30
0.0
  0
VERTEX
  5
44B
  8
0
 10
210.1329031287797
 20
110.1437140200951
 30
0.0
  0
VERTEX
  5
44C
  8
0
 10
210.14712447261931
 20
110.1483543420471
 30
0.0
  0
VERTEX
  5
44D
  8
0
 10
210.1613443367641
 20
110.15301537972211
 30
0.0
  0
VERTEX
  5
44E
  8
0
 10
210.17556272121479
 20
110.1576941737311
 30
0.0
  0
VERTEX
  5
44F
  8
0
 10
210.1897796259708
 20
110.1623907240741
 30
0.0
  0
VERTEX
  5
450
  8
0
 10
210.2039965307267
 20
110.16710059166761
 30
0.0
  0
VERTEX
  5
451
  8
0
 10
210.2182149151773
 20
110.17182525620611
 30
0.0
  0
VERTEX
  5
452
  8
0
 10
210.2324347793222
 20
110.17656175830059
 30
0.0
  0
VERTEX
  5
453
  8
0
 10
210.2454383345881
 20
110.1807315374016
 30
0.0
  0
VERTEX
  5
454
  8
0
 10
210.25886508248129
 20
110.1848228926941
 30
0.0
  0
VERTEX
  5
455
  8
0
 10
210.2725670535512
 20
110.1889571591271
 30
0.0
  0
VERTEX
  5
456
  8
0
 10
210.2863977580428
 20
110.1932556716496
 30
0.0
  0
VERTEX
  5
457
  8
0
 10
210.30021218589479
 20
110.1978397652106
 30
0.0
  0
VERTEX
  5
458
  8
0
 10
210.31386236765729
 20
110.2028292950646
 30
0.0
  0
VERTEX
  5
459
  8
0
 10
210.32720329326929
 20
110.2083455961606
 30
0.0
  0
VERTEX
  5
45A
  8
0
 10
210.34008699328081
 20
110.2145085237531
 30
0.0
  0
VERTEX
  5
45B
  8
0
 10
210.3523669779363
 20
110.22144237218011
 30
0.0
  0
VERTEX
  5
45C
  8
0
 10
210.36389823717479
 20
110.22926551700159
 30
0.0
  0
VERTEX
  5
45D
  8
0
 10
210.37453280154631
 20
110.23809781347209
 30
0.0
  0
VERTEX
  5
45E
  8
0
 10
210.38412418129519
 20
110.2480635559296
 30
0.0
  0
VERTEX
  5
45F
  8
0
 10
210.39252736636081
 20
110.25928259962861
 30
0.0
  0
VERTEX
  5
460
  8
0
 10
210.39959586698731
 20
110.27187479982361
 30
0.0
  0
VERTEX
  5
461
  8
0
 10
210.40526753600571
 20
110.28414146722859
 30
0.0
  0
VERTEX
  5
462
  8
0
 10
210.41070837268231
 20
110.2966478451426
 30
0.0
  0
VERTEX
  5
463
  8
0
 10
210.41592429579481
 20
110.3093835757041
 30
0.0
  0
VERTEX
  5
464
  8
0
 10
210.42092270381579
 20
110.3223383010516
 30
0.0
  0
VERTEX
  5
465
  8
0
 10
210.42570951552329
 20
110.3355016633236
 30
0.0
  0
VERTEX
  5
466
  8
0
 10
210.43029508877879
 20
110.3488662640476
 30
0.0
  0
VERTEX
  5
467
  8
0
 10
210.43468386266571
 20
110.36242026566759
 30
0.0
  0
VERTEX
  5
468
  8
0
 10
210.43888471535129
 20
110.3761562697111
 30
0.0
  0
VERTEX
  5
469
  8
0
 10
210.4429050453077
 20
110.3900624386221
 30
0.0
  0
VERTEX
  5
46A
  8
0
 10
210.44675225100769
 20
110.4041313739281
 30
0.0
  0
VERTEX
  5
46B
  8
0
 10
210.45043373092369
 20
110.4183527177676
 30
0.0
  0
VERTEX
  5
46C
  8
0
 10
210.4539554038337
 20
110.4327161122791
 30
0.0
  0
VERTEX
  5
46D
  8
0
 10
210.45732614790469
 20
110.4472126792956
 30
0.0
  0
VERTEX
  5
46E
  8
0
 10
210.4605518819148
 20
110.4618320609556
 30
0.0
  0
VERTEX
  5
46F
  8
0
 10
210.4636414840308
 20
110.4765668587866
 30
0.0
  0
VERTEX
  5
470
  8
0
 10
210.4666023527252
 20
110.49140523523261
 30
0.0
  0
VERTEX
  5
471
  8
0
 10
210.4694404067763
 20
110.5063383121266
 30
0.0
  0
VERTEX
  5
472
  8
0
 10
210.4721630446563
 20
110.52135721130161
 30
0.0
  0
VERTEX
  5
473
  8
0
 10
210.47477914453219
 20
110.53645157489611
 30
0.0
  0
VERTEX
  5
474
  8
0
 10
210.47729610487681
 20
110.5516110450486
 30
0.0
  0
VERTEX
  5
475
  8
0
 10
210.47971984446781
 20
110.56682822328661
 30
0.0
  0
VERTEX
  5
476
  8
0
 10
210.48205776177781
 20
110.5820912720541
 30
0.0
  0
VERTEX
  5
477
  8
0
 10
210.48431725527931
 20
110.59739279287859
 30
0.0
  0
VERTEX
  5
478
  8
0
 10
210.4865072031393
 20
110.6127209482041
 30
0.0
  0
VERTEX
  5
479
  8
0
 10
210.48863352413571
 20
110.6280683395581
 30
0.0
  0
VERTEX
  5
47A
  8
0
 10
210.4907050964357
 20
110.6434231293846
 30
0.0
  0
VERTEX
  5
47B
  8
0
 10
210.49272635912271
 20
110.6587779192111
 30
0.0
  0
VERTEX
  5
47C
  8
0
 10
210.4947076700582
 20
110.674122351176
 30
0.0
  0
VERTEX
  5
47D
  8
0
 10
210.49665346832569
 20
110.6894460674181
 30
0.0
  0
VERTEX
  5
47E
  8
0
 10
210.49857411178681
 20
110.70474018977011
 30
0.0
  0
VERTEX
  5
47F
  8
0
 10
210.50047551921929
 20
110.7199958400651
 30
0.0
  0
VERTEX
  5
480
  8
0
 10
210.5023650890958
 20
110.7352026604416
 30
0.0
  0
VERTEX
  5
481
  8
0
 10
210.50425021988869
 20
110.7503502930381
 30
0.0
  0
VERTEX
  5
482
  8
0
 10
210.50613831007081
 20
110.7654298596876
 30
0.0
  0
VERTEX
  5
483
  8
0
 10
210.5080367581142
 20
110.78043248222311
 30
0.0
  0
VERTEX
  5
484
  8
0
 10
210.50995148279719
 20
110.7953478027831
 30
0.0
  0
VERTEX
  5
485
  8
0
 10
210.51189284198131
 20
110.8101669432006
 30
0.0
  0
VERTEX
  5
486
  8
0
 10
210.5138652747498
 20
110.8248795456141
 30
0.0
  0
VERTEX
  5
487
  8
0
 10
210.51587765926979
 20
110.83947673185661
 30
0.0
  0
VERTEX
  5
488
  8
0
 10
210.51793739401381
 20
110.85394814406661
 30
0.0
  0
VERTEX
  5
489
  8
0
 10
210.52005187745411
 20
110.8682849040771
 30
0.0
  0
VERTEX
  5
48A
  8
0
 10
210.52222702836929
 20
110.8824766540266
 30
0.0
  0
VERTEX
  5
48B
  8
0
 10
210.5244717249258
 20
110.8965159954426
 30
0.0
  0
VERTEX
  5
48C
  8
0
 10
210.52679188590179
 20
110.91038961107461
 30
0.0
  0
VERTEX
  5
48D
  8
0
 10
210.52919786915879
 20
110.9240915821446
 30
0.0
  0
VERTEX
  5
48E
  8
0
 10
210.53169263408569
 20
110.9376100710966
 30
0.0
  0
VERTEX
  5
48F
  8
0
 10
210.5342880182389
 20
110.9509361997636
 30
0.0
  0
SEQEND
  5
490
  8
0
  0
POLYLINE
  5
491
  8
0
 66
     1
 10
0.0
 20
0.0
 30
0.0
  0
VERTEX
  5
492
  8
0
 10
210.53428653854431
 20
110.9509361997636
 30
0.0
  0
VERTEX
  5
493
  8
0
 10
210.53718526006969
 20
110.9654460840306
 30
0.0
  0
VERTEX
  5
494
  8
0
 10
210.54007954251179
 20
110.97995744799211
 30
0.0
  0
VERTEX
  5
495
  8
0
 10
210.54296938587021
 20
110.9944702916481
 30
0.0
  0
VERTEX
  5
496
  8
0
 10
210.54585331045081
 20
111.00898313530411
 30
0.0
  0
VERTEX
  5
497
  8
0
 10
210.5487313162532
 20
111.0234974586546
 30
0.0
  0
VERTEX
  5
498
  8
0
 10
210.5516048829723
 20
111.0380132616996
 30
0.0
  0
VERTEX
  5
499
  8
0
 10
210.55447253091319
 20
111.05253054443909
 30
0.0
  0
VERTEX
  5
49A
  8
0
 10
210.5573372194653
 20
111.0670478271786
 30
0.0
  0
VERTEX
  5
49B
  8
0
 10
210.56019598923919
 20
111.08156658961261
 30
0.0
  0
VERTEX
  5
49C
  8
0
 10
210.56305031992969
 20
111.0960853520466
 30
0.0
  0
VERTEX
  5
49D
  8
0
 10
210.56590021153681
 20
111.1106055941751
 30
0.0
  0
VERTEX
  5
49E
  8
0
 10
210.56874566406029
 20
111.1251273159981
 30
0.0
  0
VERTEX
  5
49F
  8
0
 10
210.57158667750011
 20
111.1396490378211
 30
0.0
  0
VERTEX
  5
4A0
  8
0
 10
210.57442325185681
 20
111.15417223933861
 30
0.0
  0
VERTEX
  5
4A1
  8
0
 10
210.57725538712981
 20
111.1686954408561
 30
0.0
  0
VERTEX
  5
4A2
  8
0
 10
210.58008308331929
 20
111.18322012206799
 30
0.0
  0
VERTEX
  5
4A3
  8
0
 10
210.58290782011969
 20
111.1977448032801
 30
0.0
  0
VERTEX
  5
4A4
  8
0
 10
210.58572811783679
 20
111.2122709641866
 30
0.0
  0
VERTEX
  5
4A5
  8
0
 10
210.58854545616481
 20
111.2267986047876
 30
0.0
  0
VERTEX
  5
4A6
  8
0
 10
210.59135835540931
 20
111.24132624538861
 30
0.0
  0
VERTEX
  5
4A7
  8
0
 10
210.59416829526469
 20
111.25585388598959
 30
0.0
  0
VERTEX
  5
4A8
  8
0
 10
210.59697379603671
 20
111.2703830062851
 30
0.0
  0
VERTEX
  5
4A9
  8
0
 10
210.5997778171141
 20
111.28491212658059
 30
0.0
  0
VERTEX
  5
4AA
  8
0
 10
210.6025773991083
 20
111.2994427265706
 30
0.0
  0
VERTEX
  5
4AB
  8
0
 10
210.60537254201881
 20
111.3139733265606
 30
0.0
  0
VERTEX
  5
4AC
  8
0
 10
210.6081662052348
 20
111.3285054062451
 30
0.0
  0
VERTEX
  5
4AD
  8
0
 10
210.6109569090618
 20
111.3430374859296
 30
0.0
  0
VERTEX
  5
4AE
  8
0
 10
210.61374465349979
 20
111.3575695656141
 30
0.0
  0
VERTEX
  5
4AF
  8
0
 10
210.6165294385487
 20
111.3721031249931
 30
0.0
  0
VERTEX
  5
4B0
  8
0
 10
210.61931126420879
 20
111.38663668437211
 30
0.0
  0
VERTEX
  5
4B1
  8
0
 10
210.62209013047971
 20
111.4011702437511
 30
0.0
  0
VERTEX
  5
4B2
  8
0
 10
210.6248675170562
 20
111.4157052828246
 30
0.0
  0
VERTEX
  5
4B3
  8
0
 10
210.62764194424369
 20
111.4302403218981
 30
0.0
  0
VERTEX
  5
4B4
  8
0
 10
210.63041489173671
 20
111.44477684066609
 30
0.0
  0
VERTEX
  5
4B5
  8
0
 10
210.63318487984071
 20
111.4593118797396
 30
0.0
  0
VERTEX
  5
4B6
  8
0
 10
210.63595338825019
 20
111.4738483985076
 30
0.0
  0
VERTEX
  5
4B7
  8
0
 10
210.63872041696521
 20
111.4883849172756
 30
0.0
  0
VERTEX
  5
4B8
  8
0
 10
210.6414844862912
 20
111.5029229157381
 30
0.0
  0
VERTEX
  5
4B9
  8
0
 10
210.64424707592269
 20
111.51745943450609
 30
0.0
  0
VERTEX
  5
4BA
  8
0
 10
210.6470081858597
 20
111.53199743296859
 30
0.0
  0
VERTEX
  5
4BB
  8
0
 10
210.64976781610221
 20
111.5465354314311
 30
0.0
  0
VERTEX
  5
4BC
  8
0
 10
210.65252596665019
 20
111.5610749095881
 30
0.0
  0
VERTEX
  5
4BD
  8
0
 10
210.65528263750369
 20
111.5756129080506
 30
0.0
  0
VERTEX
  5
4BE
  8
0
 10
210.6580378286628
 20
111.59015238620761
 30
0.0
  0
VERTEX
  5
4BF
  8
0
 10
210.66079154012721
 20
111.6046918643646
 30
0.0
  0
VERTEX
  5
4C0
  8
0
 10
210.66354525159159
 20
111.6192313425216
 30
0.0
  0
VERTEX
  5
4C1
  8
0
 10
210.66629748336169
 20
111.63377082067861
 30
0.0
  0
VERTEX
  5
4C2
  8
0
 10
210.66904823543729
 20
111.6483102988356
 30
0.0
  0
VERTEX
  5
4C3
  8
0
 10
210.67179898751269
 20
111.6628497769926
 30
0.0
  0
VERTEX
  5
4C4
  8
0
 10
210.67454825989381
 20
111.6773907348441
 30
0.0
  0
VERTEX
  5
4C5
  8
0
 10
210.67729753227479
 20
111.6919302130011
 30
0.0
  0
VERTEX
  5
4C6
  8
0
 10
210.68004680465569
 20
111.7064711708525
 30
0.0
  0
VERTEX
  5
4C7
  8
0
 10
210.68279607703681
 20
111.7210106490096
 30
0.0
  0
VERTEX
  5
4C8
  8
0
 10
210.68554386972329
 20
111.73555160686109
 30
0.0
  0
VERTEX
  5
4C9
  8
0
 10
210.6882916624098
 20
111.7500925647126
 30
0.0
  0
VERTEX
  5
4CA
  8
0
 10
210.6910394550963
 20
111.76463204286959
 30
0.0
  0
VERTEX
  5
4CB
  8
0
 10
210.69378872747731
 20
111.7791730007211
 30
0.0
  0
VERTEX
  5
4CC
  8
0
 10
210.69653652016379
 20
111.7937139585726
 30
0.0
  0
VERTEX
  5
4CD
  8
0
 10
210.69928579254471
 20
111.8082534367296
 30
0.0
  0
VERTEX
  5
4CE
  8
0
 10
210.70203358523119
 20
111.822794394581
 30
0.0
  0
VERTEX
  5
4CF
  8
0
 10
210.7047828576122
 20
111.8373338727381
 30
0.0
  0
VERTEX
  5
4D0
  8
0
 10
210.70753360968769
 20
111.85187483058959
 30
0.0
  0
VERTEX
  5
4D1
  8
0
 10
210.7102828820687
 20
111.8664143087466
 30
0.0
  0
VERTEX
  5
4D2
  8
0
 10
210.71303511383871
 20
111.8809537869036
 30
0.0
  0
VERTEX
  5
4D3
  8
0
 10
210.71578734560879
 20
111.8954947447551
 30
0.0
  0
VERTEX
  5
4D4
  8
0
 10
210.71853957737869
 20
111.9100342229121
 30
0.0
  0
VERTEX
  5
4D5
  8
0
 10
210.72129328884321
 20
111.9245722213746
 30
0.0
  0
VERTEX
  5
4D6
  8
0
 10
210.7240484800023
 20
111.93911169953159
 30
0.0
  0
VERTEX
  5
4D7
  8
0
 10
210.7268051508558
 20
111.9536511776886
 30
0.0
  0
VERTEX
  5
4D8
  8
0
 10
210.72956330140369
 20
111.9681891761511
 30
0.0
  0
VERTEX
  5
4D9
  8
0
 10
210.73232293164631
 20
111.9827271746136
 30
0.0
  0
VERTEX
  5
4DA
  8
0
 10
210.73508404158329
 20
111.9972651730761
 30
0.0
  0
VERTEX
  5
4DB
  8
0
 10
210.73784515152019
 20
112.0118031715386
 30
0.0
  0
VERTEX
  5
4DC
  8
0
 10
210.7406092208463
 20
112.0263411700011
 30
0.0
  0
VERTEX
  5
4DD
  8
0
 10
210.74337624956129
 20
112.0408776887691
 30
0.0
  0
VERTEX
  5
4DE
  8
0
 10
210.74614327827629
 20
112.0554142075371
 30
0.0
  0
VERTEX
  5
4DF
  8
0
 10
210.7489132663803
 20
112.06995072630509
 30
0.0
  0
VERTEX
  5
4E0
  8
0
 10
210.75168621387331
 20
112.0844857653786
 30
0.0
  0
VERTEX
  5
4E1
  8
0
 10
210.75446064106069
 20
112.0990222841466
 30
0.0
  0
VERTEX
  5
4E2
  8
0
 10
210.7572365479428
 20
112.1135558435256
 30
0.0
  0
VERTEX
  5
4E3
  8
0
 10
210.7600168939081
 20
112.128090882599
 30
0.0
  0
VERTEX
  5
4E4
  8
0
 10
210.76279723987369
 20
112.1426244419781
 30
0.0
  0
VERTEX
  5
4E5
  8
0
 10
210.76558202492271
 20
112.1571580013571
 30
0.0
  0
VERTEX
  5
4E6
  8
0
 10
210.7683697693607
 20
112.17169156073599
 30
0.0
  0
VERTEX
  5
4E7
  8
0
 10
210.77115899349329
 20
112.18622364042059
 30
0.0
  0
VERTEX
  5
4E8
  8
0
 10
210.7739526567093
 20
112.20075572010509
 30
0.0
  0
VERTEX
  5
4E9
  8
0
 10
210.7767477996199
 20
112.2152863200951
 30
0.0
  0
VERTEX
  5
4EA
  8
0
 10
210.77954738161381
 20
112.2298169200851
 30
0.0
  0
VERTEX
  5
4EB
  8
0
 10
210.78234992299679
 20
112.24434604038061
 30
0.0
  0
VERTEX
  5
4EC
  8
0
 10
210.78515542376871
 20
112.2588751606761
 30
0.0
  0
VERTEX
  5
4ED
  8
0
 10
210.78796388392971
 20
112.2734042809716
 30
0.0
  0
VERTEX
  5
4EE
  8
0
 10
210.79077678317429
 20
112.28793192157261
 30
0.0
  0
VERTEX
  5
4EF
  8
0
 10
210.79359264180789
 20
112.3024595621736
 30
0.0
  0
VERTEX
  5
4F0
  8
0
 10
210.7964129395248
 20
112.31698572308009
 30
0.0
  0
VERTEX
  5
4F1
  8
0
 10
210.79923767632519
 20
112.33151188398659
 30
0.0
  0
VERTEX
  5
4F2
  8
0
 10
210.80206537251479
 20
112.3460365651986
 30
0.0
  0
VERTEX
  5
4F3
  8
0
 10
210.80489602809331
 20
112.36055976671609
 30
0.0
  0
VERTEX
  5
4F4
  8
0
 10
210.80773260244979
 20
112.3750829682336
 30
0.0
  0
VERTEX
  5
4F5
  8
0
 10
210.81057213619519
 20
112.3896061697511
 30
0.0
  0
VERTEX
  5
4F6
  8
0
 10
210.81341758871881
 20
112.40412789157411
 30
0.0
  0
VERTEX
  5
4F7
  8
0
 10
210.81626600063129
 20
112.4186481337026
 30
0.0
  0
VERTEX
  5
4F8
  8
0
 10
210.8191203313217
 20
112.4331683758311
 30
0.0
  0
VERTEX
  5
4F9
  8
0
 10
210.82197762140129
 20
112.4476871382651
 30
0.0
  0
VERTEX
  5
4FA
  8
0
 10
210.82484083025861
 20
112.4622044210046
 30
0.0
  0
VERTEX
  5
4FB
  8
0
 10
210.82770847819981
 20
112.4767217037441
 30
0.0
  0
VERTEX
  5
4FC
  8
0
 10
210.83058204491871
 20
112.4912375067891
 30
0.0
  0
VERTEX
  5
4FD
  8
0
 10
210.83346005072119
 20
112.50575330983411
 30
0.0
  0
VERTEX
  5
4FE
  8
0
 10
210.83634249560731
 20
112.5202661534901
 30
0.0
  0
VERTEX
  5
4FF
  8
0
 10
210.8392308592712
 20
112.53477899714611
 30
0.0
  0
VERTEX
  5
500
  8
0
 10
210.84212366201879
 20
112.5492918408021
 30
0.0
  0
VERTEX
  5
501
  8
0
 10
210.84502386323879
 20
112.5638032047636
 30
0.0
  0
SEQEND
  5
502
  8
0
  0
POLYLINE
  5
503
  8
0
 66
     1
 10
0.0
 20
0.0
 30
0.0
  0
VERTEX
  5
504
  8
0
 10
210.84502238354429
 20
112.5638032047636
 30
0.0
  0
VERTEX
  5
505
  8
0
 10
210.8479684552938
 20
112.5785764746516
 30
0.0
  0
VERTEX
  5
506
  8
0
 10
210.85089973009829
 20
112.59335418362311
 30
0.0
  0
VERTEX
  5
507
  8
0
 10
210.85381768765231
 20
112.6081333722891
 30
0.0
  0
VERTEX
  5
508
  8
0
 10
210.85672232795571
 20
112.62291552034409
 30
0.0
  0
VERTEX
  5
509
  8
0
 10
210.8596136510088
 20
112.63770062778811
 30
0.0
  0
VERTEX
  5
50A
  8
0
 10
210.86249313650569
 20
112.6524886946211
 30
0.0
  0
VERTEX
  5
50B
  8
0
 10
210.86536078444669
 20
112.66727824114849
 30
0.0
  0
VERTEX
  5
50C
  8
0
 10
210.8682180745264
 20
112.68206926737059
 30
0.0
  0
VERTEX
  5
50D
  8
0
 10
210.87106500674429
 20
112.6968632529816
 30
0.0
  0
VERTEX
  5
50E
  8
0
 10
210.87390158110071
 20
112.711658718287
 30
0.0
  0
VERTEX
  5
50F
  8
0
 10
210.87673075698481
 20
112.7264556632871
 30
0.0
  0
VERTEX
  5
510
  8
0
 10
210.87955105470181
 20
112.74125556767611
 30
0.0
  0
VERTEX
  5
511
  8
0
 10
210.8823639539462
 20
112.7560554720651
 30
0.0
  0
VERTEX
  5
512
  8
0
 10
210.88516945471829
 20
112.7708583358431
 30
0.0
  0
VERTEX
  5
513
  8
0
 10
210.88796903671221
 20
112.7856611996211
 30
0.0
  0
VERTEX
  5
514
  8
0
 10
210.8907626999283
 20
112.80046554309349
 30
0.0
  0
VERTEX
  5
515
  8
0
 10
210.8935519240608
 20
112.8152698865661
 30
0.0
  0
VERTEX
  5
516
  8
0
 10
210.89633670910979
 20
112.8300771894276
 30
0.0
  0
VERTEX
  5
517
  8
0
 10
210.8991185347698
 20
112.84488301259459
 30
0.0
  0
VERTEX
  5
518
  8
0
 10
210.90189592134629
 20
112.85969031545611
 30
0.0
  0
VERTEX
  5
519
  8
0
 10
210.90467182822829
 20
112.87449909801209
 30
0.0
  0
VERTEX
  5
51A
  8
0
 10
210.90744625541569
 20
112.8893078805681
 30
0.0
  0
VERTEX
  5
51B
  8
0
 10
210.91021920290879
 20
112.9041151834295
 30
0.0
  0
VERTEX
  5
51C
  8
0
 10
210.9129936300962
 20
112.9189239659856
 30
0.0
  0
VERTEX
  5
51D
  8
0
 10
210.9157665775893
 20
112.9337327485416
 30
0.0
  0
VERTEX
  5
51E
  8
0
 10
210.9185410047767
 20
112.9485415310976
 30
0.0
  0
VERTEX
  5
51F
  8
0
 10
210.92131691165861
 20
112.96335031365361
 30
0.0
  0
VERTEX
  5
520
  8
0
 10
210.9240942982351
 20
112.97815761651511
 30
0.0
  0
VERTEX
  5
521
  8
0
 10
210.9268761238952
 20
112.9929649193766
 30
0.0
  0
VERTEX
  5
522
  8
0
 10
210.92966090894419
 20
113.0077707425436
 30
0.0
  0
VERTEX
  5
523
  8
0
 10
210.93245013307671
 20
113.02257656571059
 30
0.0
  0
VERTEX
  5
524
  8
0
 10
210.93524527598731
 20
113.0373823888776
 30
0.0
  0
VERTEX
  5
525
  8
0
 10
210.93804485798131
 20
113.0521852526556
 30
0.0
  0
VERTEX
  5
526
  8
0
 10
210.94085035875329
 20
113.06698811643361
 30
0.0
  0
VERTEX
  5
527
  8
0
 10
210.9436632579978
 20
113.0817895005171
 30
0.0
  0
VERTEX
  5
528
  8
0
 10
210.94648355571471
 20
113.0965894049061
 30
0.0
  0
VERTEX
  5
529
  8
0
 10
210.94931273159881
 20
113.1113878296006
 30
0.0
  0
VERTEX
  5
52A
  8
0
 10
210.95214930595529
 20
113.1261847746006
 30
0.0
  0
VERTEX
  5
52B
  8
0
 10
210.95499623817329
 20
113.1409802399061
 30
0.0
  0
VERTEX
  5
52C
  8
0
 10
210.9578535282528
 20
113.1557727458226
 30
0.0
  0
VERTEX
  5
52D
  8
0
 10
210.96072265588811
 20
113.1705637720446
 30
0.0
  0
VERTEX
  5
52E
  8
0
 10
210.96360214138519
 20
113.1853533185721
 30
0.0
  0
VERTEX
  5
52F
  8
0
 10
210.96649346443829
 20
113.2001384260161
 30
0.0
  0
VERTEX
  5
530
  8
0
 10
210.9693981047418
 20
113.21492353346
 30
0.0
  0
VERTEX
  5
531
  8
0
 10
210.97231606229579
 20
113.2297042018206
 30
0.0
  0
VERTEX
  5
532
  8
0
 10
210.97524881679479
 20
113.24448339048659
 30
0.0
  0
VERTEX
  5
533
  8
0
 10
210.9781963682388
 20
113.2592596197636
 30
0.0
  0
SEQEND
  5
534
  8
0
  0
POLYLINE
  5
535
  8
0
 66
     1
 10
0.0
 20
0.0
 30
0.0
  0
VERTEX
  5
536
  8
0
 10
210.97819488854429
 20
113.2592596197636
 30
0.0
  0
VERTEX
  5
537
  8
0
 10
210.9801140523108
 20
113.2678847590041
 30
0.0
  0
VERTEX
  5
538
  8
0
 10
210.98270647707469
 20
113.2783032879786
 30
0.0
  0
VERTEX
  5
539
  8
0
 10
210.9858034776633
 20
113.2902651383166
 30
0.0
  0
VERTEX
  5
53A
  8
0
 10
210.98924228768129
 20
113.3035246807311
 30
0.0
  0
VERTEX
  5
53B
  8
0
 10
210.99285570165031
 20
113.3178303671571
 30
0.0
  0
VERTEX
  5
53C
  8
0
 10
210.99647799378619
 20
113.3329365683076
 30
0.0
  0
VERTEX
  5
53D
  8
0
 10
210.9999449179997
 20
113.3485932158121
 30
0.0
  0
VERTEX
  5
53E
  8
0
 10
211.0030922282013
 20
113.36455468038361
 30
0.0
  0
VERTEX
  5
53F
  8
0
 10
211.00575123921769
 20
113.3805694139571
 30
0.0
  0
VERTEX
  5
540
  8
0
 10
211.00775918465411
 20
113.3963903075511
 30
0.0
  0
VERTEX
  5
541
  8
0
 10
211.00895033872669
 20
113.4117717318786
 30
0.0
  0
VERTEX
  5
542
  8
0
 10
211.0091574959568
 20
113.42646065917999
 30
0.0
  0
VERTEX
  5
543
  8
0
 10
211.00821788994929
 20
113.4402129398631
 30
0.0
  0
VERTEX
  5
544
  8
0
 10
211.00596283553119
 20
113.45277850555711
 30
0.0
  0
VERTEX
  5
545
  8
0
 10
211.00222956630779
 20
113.46391024728059
 30
0.0
  0
VERTEX
  5
546
  8
0
 10
210.99685235649471
 20
113.47335809666311
 30
0.0
  0
VERTEX
  5
547
  8
0
 10
210.9896640006136
 20
113.4808749447231
 30
0.0
  0
VERTEX
  5
548
  8
0
 10
210.9805017322698
 20
113.4862136824791
 30
0.0
  0
VERTEX
  5
549
  8
0
 10
210.96766242309329
 20
113.4896510128026
 30
0.0
  0
VERTEX
  5
54A
  8
0
 10
210.9549118955868
 20
113.4897501523341
 30
0.0
  0
VERTEX
  5
54B
  8
0
 10
210.9423137766137
 20
113.4869387327841
 30
0.0
  0
VERTEX
  5
54C
  8
0
 10
210.92993465242671
 20
113.4816414264741
 30
0.0
  0
VERTEX
  5
54D
  8
0
 10
210.91783814988921
 20
113.47428438542011
 30
0.0
  0
VERTEX
  5
54E
  8
0
 10
210.9060893755593
 20
113.46529376163799
 30
0.0
  0
VERTEX
  5
54F
  8
0
 10
210.89475639538369
 20
113.4550957071441
 30
0.0
  0
VERTEX
  5
550
  8
0
 10
210.8839028362263
 20
113.44411785364861
 30
0.0
  0
VERTEX
  5
551
  8
0
 10
210.87359232495029
 20
113.43278339377861
 30
0.0
  0
VERTEX
  5
552
  8
0
 10
210.8638929275028
 20
113.42151995924461
 30
0.0
  0
VERTEX
  5
553
  8
0
 10
210.85486975044171
 20
113.4107551817571
 30
0.0
  0
VERTEX
  5
554
  8
0
 10
210.84658642063081
 20
113.4009122539431
 30
0.0
  0
VERTEX
  5
555
  8
0
 10
210.83910952432231
 20
113.3924202872076
 30
0.0
  0
VERTEX
  5
556
  8
0
 10
210.82906387836169
 20
113.3814764666856
 30
0.0
  0
VERTEX
  5
557
  8
0
 10
210.8190256308738
 20
113.3705222883021
 30
0.0
  0
VERTEX
  5
558
  8
0
 10
210.8089947818581
 20
113.35955479266811
 30
0.0
  0
VERTEX
  5
559
  8
0
 10
210.79897133131519
 20
113.3485754594781
 30
0.0
  0
VERTEX
  5
55A
  8
0
 10
210.7889552792447
 20
113.33758576842661
 30
0.0
  0
VERTEX
  5
55B
  8
0
 10
210.77894514595229
 20
113.3265842398191
 30
0.0
  0
VERTEX
  5
55C
  8
0
 10
210.76894389082679
 20
113.3155708736556
 30
0.0
  0
VERTEX
  5
55D
  8
0
 10
210.75895151386831
 20
113.30454714963059
 30
0.0
  0
VERTEX
  5
55E
  8
0
 10
210.74896653538229
 20
113.2935130677441
 30
0.0
  0
VERTEX
  5
55F
  8
0
 10
210.7389889553688
 20
113.2824686279961
 30
0.0
  0
VERTEX
  5
560
  8
0
 10
210.7290217332168
 20
113.27141383038661
 30
0.0
  0
VERTEX
  5
561
  8
0
 10
210.7190619095372
 20
113.2603486749156
 30
0.0
  0
VERTEX
  5
562
  8
0
 10
210.70911244371931
 20
113.24927464127759
 30
0.0
  0
VERTEX
  5
563
  8
0
 10
210.69917185606829
 20
113.2381902497781
 30
0.0
  0
VERTEX
  5
564
  8
0
 10
210.6892416262788
 20
113.2270969801116
 30
0.0
  0
VERTEX
  5
565
  8
0
 10
210.67932027465611
 20
113.2159948322781
 30
0.0
  0
VERTEX
  5
566
  8
0
 10
210.6694078012008
 20
113.2048823265831
 30
0.0
  0
VERTEX
  5
567
  8
0
 10
210.65950716530111
 20
113.1937624224156
 30
0.0
  0
VERTEX
  5
568
  8
0
 10
210.64961688726331
 20
113.18263364008099
 30
0.0
  0
VERTEX
  5
569
  8
0
 10
210.63973696708669
 20
113.17149745927409
 30
0.0
  0
VERTEX
  5
56A
  8
0
 10
210.62986888446611
 20
113.1603538799946
 30
0.0
  0
VERTEX
  5
56B
  8
0
 10
210.62000968001271
 20
113.1492014225481
 30
0.0
  0
VERTEX
  5
56C
  8
0
 10
210.6101637928098
 20
113.138041566629
 30
0.0
  0
VERTEX
  5
56D
  8
0
 10
210.6003297431628
 20
113.1268743122376
 30
0.0
  0
VERTEX
  5
56E
  8
0
 10
210.5905060513773
 20
113.11570113906799
 30
0.0
  0
VERTEX
  5
56F
  8
0
 10
210.58069419714769
 20
113.1045190877316
 30
0.0
  0
VERTEX
  5
570
  8
0
 10
210.5708956601687
 20
113.0933325973116
 30
0.0
  0
VERTEX
  5
571
  8
0
 10
210.5611089607458
 20
113.082138708419
 30
0.0
  0
VERTEX
  5
572
  8
0
 10
210.55133557857329
 20
113.0709389007486
 30
0.0
  0
VERTEX
  5
573
  8
0
 10
210.54157551365131
 20
113.05973317430011
 30
0.0
  0
VERTEX
  5
574
  8
0
 10
210.53182728628519
 20
113.0485215290736
 30
0.0
  0
VERTEX
  5
575
  8
0
 10
210.5220938558642
 20
113.0373054447636
 30
0.0
  0
VERTEX
  5
576
  8
0
 10
210.5123959381113
 20
113.0261219137326
 30
0.0
  0
VERTEX
  5
577
  8
0
 10
210.5026980203582
 20
113.0149398623961
 30
0.0
  0
VERTEX
  5
578
  8
0
 10
210.4929971432162
 20
113.0037592907541
 30
0.0
  0
VERTEX
  5
579
  8
0
 10
210.48329330668531
 20
112.9925787191121
 30
0.0
  0
VERTEX
  5
57A
  8
0
 10
210.47358799045961
 20
112.9813981474701
 30
0.0
  0
VERTEX
  5
57B
  8
0
 10
210.46388119453979
 20
112.97021905552261
 30
0.0
  0
VERTEX
  5
57C
  8
0
 10
210.45417143923069
 20
112.95903996357509
 30
0.0
  0
VERTEX
  5
57D
  8
0
 10
210.44445872453269
 20
112.9478623513221
 30
0.0
  0
VERTEX
  5
57E
  8
0
 10
210.43474600983481
 20
112.93668473906909
 30
0.0
  0
VERTEX
  5
57F
  8
0
 10
210.42503033574769
 20
112.9255086065106
 30
0.0
  0
VERTEX
  5
580
  8
0
 10
210.41531170227179
 20
112.9143324739521
 30
0.0
  0
VERTEX
  5
581
  8
0
 10
210.40559158910131
 20
112.9031578210881
 30
0.0
  0
VERTEX
  5
582
  8
0
 10
210.39586851654181
 20
112.8919846479186
 30
0.0
  0
VERTEX
  5
583
  8
0
 10
210.38614396428761
 20
112.880811474749
 30
0.0
  0
VERTEX
  5
584
  8
0
 10
210.37641793233919
 20
112.8696383015796
 30
0.0
  0
VERTEX
  5
585
  8
0
 10
210.3666889410018
 20
112.85846660810461
 30
0.0
  0
VERTEX
  5
586
  8
0
 10
210.35695699027519
 20
112.8472963943241
 30
0.0
  0
VERTEX
  5
587
  8
0
 10
210.3472250395487
 20
112.8361261805436
 30
0.0
  0
VERTEX
  5
588
  8
0
 10
210.33748864973879
 20
112.8249574464576
 30
0.0
  0
VERTEX
  5
589
  8
0
 10
210.32775078023431
 20
112.81379019206599
 30
0.0
  0
VERTEX
  5
58A
  8
0
 10
210.31801143103519
 20
112.8026229376746
 30
0.0
  0
VERTEX
  5
58B
  8
0
 10
210.3082691224472
 20
112.79145716297759
 30
0.0
  0
VERTEX
  5
58C
  8
0
 10
210.29852533416471
 20
112.78029286797511
 30
0.0
  0
VERTEX
  5
58D
  8
0
 10
210.28877858649329
 20
112.76913005266709
 30
0.0
  0
VERTEX
  5
58E
  8
0
 10
210.27903035912729
 20
112.7579672373591
 30
0.0
  0
VERTEX
  5
58F
  8
0
 10
210.26927917237211
 20
112.7468059017456
 30
0.0
  0
VERTEX
  5
590
  8
0
 10
210.25952650592279
 20
112.7356460458265
 30
0.0
  0
VERTEX
  5
591
  8
0
 10
210.24977088008421
 20
112.72448618990759
 30
0.0
  0
VERTEX
  5
592
  8
0
 10
210.2400137745513
 20
112.7133292933776
 30
0.0
  0
VERTEX
  5
593
  8
0
 10
210.2302537096293
 20
112.7021723968476
 30
0.0
  0
VERTEX
  5
594
  8
0
 10
210.22049216501279
 20
112.69101698001209
 30
0.0
  0
VERTEX
  5
595
  8
0
 10
210.2107276610073
 20
112.6798630428711
 30
0.0
  0
VERTEX
  5
596
  8
0
 10
210.20096167730719
 20
112.6687091057301
 30
0.0
  0
VERTEX
  5
597
  8
0
 10
210.19119273421819
 20
112.65755812797811
 30
0.0
  0
VERTEX
  5
598
  8
0
 10
210.18142231143469
 20
112.6464071502261
 30
0.0
  0
VERTEX
  5
599
  8
0
 10
210.17164892926229
 20
112.63525913186299
 30
0.0
  0
VERTEX
  5
59A
  8
0
 10
210.1618740673953
 20
112.62411111350011
 30
0.0
  0
VERTEX
  5
59B
  8
0
 10
210.15209624613931
 20
112.61296457483159
 30
0.0
  0
VERTEX
  5
59C
  8
0
 10
210.14231546549431
 20
112.6018195158576
 30
0.0
  0
VERTEX
  5
59D
  8
0
 10
210.13253320515469
 20
112.5906774162726
 30
0.0
  0
VERTEX
  5
59E
  8
0
 10
210.12274946512079
 20
112.5795353166876
 30
0.0
  0
VERTEX
  5
59F
  8
0
 10
210.1129627656976
 20
112.5683946967971
 30
0.0
  0
VERTEX
  5
5A0
  8
0
 10
210.10317458658031
 20
112.55725555660111
 30
0.0
  0
VERTEX
  5
5A1
  8
0
 10
210.09338196837911
 20
112.5461178960996
 30
0.0
  0
VERTEX
  5
5A2
  8
0
 10
210.0835893501781
 20
112.53498319498711
 30
0.0
  0
VERTEX
  5
5A3
  8
0
 10
210.07379377258829
 20
112.5238484938746
 30
0.0
  0
VERTEX
  5
5A4
  8
0
 10
210.0639952356093
 20
112.5127152724566
 30
0.0
  0
VERTEX
  5
5A5
  8
0
 10
210.05419521893569
 20
112.5015850104276
 30
0.0
  0
VERTEX
  5
5A6
  8
0
 10
210.04439224287319
 20
112.49045474839861
 30
0.0
  0
VERTEX
  5
5A7
  8
0
 10
210.03458778711629
 20
112.4793274457586
 30
0.0
  0
VERTEX
  5
5A8
  8
0
 10
210.02478037197031
 20
112.4682016228131
 30
0.0
  0
VERTEX
  5
5A9
  8
0
 10
210.01496999743529
 20
112.4570772795621
 30
0.0
  0
VERTEX
  5
5AA
  8
0
 10
210.00515814320579
 20
112.44595441600561
 30
0.0
  0
VERTEX
  5
5AB
  8
0
 10
209.99534480928179
 20
112.4348345118381
 30
0.0
  0
VERTEX
  5
5AC
  8
0
 10
209.98552703627431
 20
112.4237146076706
 30
0.0
  0
VERTEX
  5
5AD
  8
0
 10
209.97570926326679
 20
112.4125976628921
 30
0.0
  0
VERTEX
  5
5AE
  8
0
 10
209.9658870511758
 20
112.40148219780809
 30
0.0
  0
VERTEX
  5
5AF
  8
0
 10
209.95606483908469
 20
112.39036821241859
 30
0.0
  0
VERTEX
  5
5B0
  8
0
 10
209.94623818791021
 20
112.3792571864181
 30
0.0
  0
VERTEX
  5
5B1
  8
0
 10
209.9364100570412
 20
112.3681476401121
 30
0.0
  0
VERTEX
  5
5B2
  8
0
 10
209.9265789667833
 20
112.3570395735006
 30
0.0
  0
VERTEX
  5
5B3
  8
0
 10
209.9167463968306
 20
112.34593298658361
 30
0.0
  0
VERTEX
  5
5B4
  8
0
 10
209.90691086748919
 20
112.3348293590556
 30
0.0
  0
VERTEX
  5
5B5
  8
0
 10
209.8970738584533
 20
112.32372721122211
 30
0.0
  0
VERTEX
  5
5B6
  8
0
 10
209.88723389002831
 20
112.3126280227776
 30
0.0
  0
VERTEX
  5
5B7
  8
0
 10
209.87739096221421
 20
112.3015303140276
 30
0.0
  0
VERTEX
  5
5B8
  8
0
 10
209.8675465547058
 20
112.29043408497211
 30
0.0
  0
VERTEX
  5
5B9
  8
0
 10
209.85769918780829
 20
112.2793408153056
 30
0.0
  0
VERTEX
  5
5BA
  8
0
 10
209.84785034121629
 20
112.2682490253336
 30
0.0
  0
VERTEX
  5
5BB
  8
0
 10
209.8379985352353
 20
112.25715871505609
 30
0.0
  0
VERTEX
  5
5BC
  8
0
 10
209.82814376986519
 20
112.24607136416761
 30
0.0
  0
VERTEX
  5
5BD
  8
0
 10
209.8182875248007
 20
112.2349869726681
 30
0.0
  0
VERTEX
  5
5BE
  8
0
 10
209.80842832034719
 20
112.22390406086311
 30
0.0
  0
VERTEX
  5
5BF
  8
0
 10
209.79856763619929
 20
112.2128226287526
 30
0.0
  0
VERTEX
  5
5C0
  8
0
 10
209.78870399266219
 20
112.2017441560311
 30
0.0
  0
VERTEX
  5
5C1
  8
0
 10
209.77883738973611
 20
112.19066716300399
 30
0.0
  0
VERTEX
  5
5C2
  8
0
 10
209.76896930711581
 20
112.1795931293661
 30
0.0
  0
VERTEX
  5
5C3
  8
0
 10
209.7590982651063
 20
112.16852205511709
 30
0.0
  0
VERTEX
  5
5C4
  8
0
 10
209.7492242637077
 20
112.1574524605626
 30
0.0
  0
VERTEX
  5
5C5
  8
0
 10
209.7393487826148
 20
112.1463858253971
 30
0.0
  0
VERTEX
  5
5C6
  8
0
 10
209.7294703421328
 20
112.1353206699261
 30
0.0
  0
VERTEX
  5
5C7
  8
0
 10
209.7195904219563
 20
112.12425847384399
 30
0.0
  0
VERTEX
  5
5C8
  8
0
 10
209.70970754239079
 20
112.11319923715099
 30
0.0
  0
VERTEX
  5
5C9
  8
0
 10
209.6998217034363
 20
112.1021414801526
 30
0.0
  0
VERTEX
  5
5CA
  8
0
 10
209.68993290509269
 20
112.09108668254309
 30
0.0
  0
VERTEX
  5
5CB
  8
0
 10
209.68004262705469
 20
112.0800348443226
 30
0.0
  0
VERTEX
  5
5CC
  8
0
 10
209.6701493896278
 20
112.06898448579661
 30
0.0
  0
VERTEX
  5
5CD
  8
0
 10
209.66025467250611
 20
112.05793708665961
 30
0.0
  0
VERTEX
  5
5CE
  8
0
 10
209.65035699599579
 20
112.0468926469116
 30
0.0
  0
VERTEX
  5
5CF
  8
0
 10
209.64045636009621
 20
112.0358496868581
 30
0.0
  0
VERTEX
  5
5D0
  8
0
 10
209.63055424450229
 20
112.02480968619361
 30
0.0
  0
VERTEX
  5
5D1
  8
0
 10
209.62064916951931
 20
112.01377264491811
 30
0.0
  0
VERTEX
  5
5D2
  8
0
 10
209.61074113514729
 20
112.0027385630316
 30
0.0
  0
VERTEX
  5
5D3
  8
0
 10
209.6008316210808
 20
111.9917074405341
 30
0.0
  0
VERTEX
  5
5D4
  8
0
 10
209.59091914762519
 20
111.9806777977311
 30
0.0
  0
VERTEX
  5
5D5
  8
0
 10
209.58100371478079
 20
111.96965259401161
 30
0.0
  0
VERTEX
  5
5D6
  8
0
 10
209.57108680224169
 20
111.9586288699866
 30
0.0
  0
VERTEX
  5
5D7
  8
0
 10
209.56116693031379
 20
111.9476081053506
 30
0.0
  0
VERTEX
  5
5D8
  8
0
 10
209.5512440989967
 20
111.9365903001036
 30
0.0
  0
VERTEX
  5
5D9
  8
0
 10
209.54131830829081
 20
111.9255754542456
 30
0.0
  0
VERTEX
  5
5DA
  8
0
 10
209.53139103789019
 20
111.91456208808211
 30
0.0
  0
VERTEX
  5
5DB
  8
0
 10
209.52146080810081
 20
111.90355316100209
 30
0.0
  0
VERTEX
  5
5DC
  8
0
 10
209.51152909861671
 20
111.8925471933111
 30
0.0
  0
VERTEX
  5
5DD
  8
0
 10
209.50159442974379
 20
111.8815427053146
 30
0.0
  0
VERTEX
  5
5DE
  8
0
 10
209.4916568014817
 20
111.8705426564016
 30
0.0
  0
VERTEX
  5
5DF
  8
0
 10
209.48171621383079
 20
111.8595440871831
 30
0.0
  0
VERTEX
  5
5E0
  8
0
 10
209.47177414648519
 20
111.84854995704811
 30
0.0
  0
VERTEX
  5
5E1
  8
0
 10
209.46182911975069
 20
111.83755730660759
 30
0.0
  0
VERTEX
  5
5E2
  8
0
 10
209.4518811336273
 20
111.8265690952506
 30
0.0
  0
VERTEX
  5
5E3
  8
0
 10
209.4419316678092
 20
111.8155838432826
 30
0.0
  0
VERTEX
  5
5E4
  8
0
 10
209.43197776290779
 20
111.80460007100911
 30
0.0
  0
VERTEX
  5
5E5
  8
0
 10
209.42202237831179
 20
111.7936207378191
 30
0.0
  0
VERTEX
  5
5E6
  8
0
 10
209.41206551402121
 20
111.7826443640181
 30
0.0
  0
VERTEX
  5
5E7
  8
0
 10
209.40210569034181
 20
111.7716709496061
 30
0.0
  0
VERTEX
  5
5E8
  8
0
 10
209.39214142757879
 20
111.76070049458311
 30
0.0
  0
VERTEX
  5
5E9
  8
0
 10
209.38217716481569
 20
111.7497344786436
 30
0.0
  0
VERTEX
  5
5EA
  8
0
 10
209.3722084629693
 20
111.7387699423986
 30
0.0
  0
VERTEX
  5
5EB
  8
0
 10
209.36223828142829
 20
111.7278098452371
 30
0.0
  0
VERTEX
  5
5EC
  8
0
 10
209.35226514049819
 20
111.7168527074646
 30
0.0
  0
VERTEX
  5
5ED
  8
0
 10
209.34228904017931
 20
111.7058985290811
 30
0.0
  0
VERTEX
  5
5EE
  8
0
 10
209.33231146016581
 20
111.6949473100866
 30
0.0
  0
VERTEX
  5
5EF
  8
0
 10
209.32233092076319
 20
111.68399905048111
 30
0.0
  0
VERTEX
  5
5F0
  8
0
 10
209.31234742197179
 20
111.6730552299591
 30
0.0
  0
VERTEX
  5
5F1
  8
0
 10
209.3023609637913
 20
111.6621143688261
 30
0.0
  0
VERTEX
  5
5F2
  8
0
 10
209.29237154622169
 20
111.6511779467766
 30
0.0
  0
VERTEX
  5
5F3
  8
0
 10
209.2823806489578
 20
111.64024300442161
 30
0.0
  0
VERTEX
  5
5F4
  8
0
 10
209.2723867923047
 20
111.6293125011501
 30
0.0
  0
VERTEX
  5
5F5
  8
0
 10
209.2623899762628
 20
111.6183864369621
 30
0.0
  0
VERTEX
  5
5F6
  8
0
 10
209.25239168052619
 20
111.6074618524686
 30
0.0
  0
VERTEX
  5
5F7
  8
0
 10
209.24239042540071
 20
111.59654170705861
 30
0.0
  0
VERTEX
  5
5F8
  8
0
 10
209.2323862108862
 20
111.58562600073211
 30
0.0
  0
VERTEX
  5
5F9
  8
0
 10
209.22237903698269
 20
111.5747117741
 30
0.0
  0
VERTEX
  5
5FA
  8
0
 10
209.2123689036903
 20
111.5638034662461
 30
0.0
  0
VERTEX
  5
5FB
  8
0
 10
209.2023572907033
 20
111.55289663808659
 30
0.0
  0
VERTEX
  5
5FC
  8
0
 10
209.1923427183273
 20
111.5419942490106
 30
0.0
  0
VERTEX
  5
5FD
  8
0
 10
209.1823251865622
 20
111.5310962990181
 30
0.0
  0
VERTEX
  5
5FE
  8
0
 10
209.1723046954082
 20
111.5202013084146
 30
0.0
  0
VERTEX
  5
5FF
  8
0
 10
209.1622827245597
 20
111.5093092772001
 30
0.0
  0
VERTEX
  5
600
  8
0
 10
209.1522577943222
 20
111.49842316476359
 30
0.0
  0
SEQEND
  5
601
  8
0
  0
POLYLINE
  5
602
  8
0
 66
     1
 10
0.0
 20
0.0
 30
0.0
  0
VERTEX
  5
603
  8
0
 10
208.796845725644
 20
113.4129721044478
 30
0.0
  0
VERTEX
  5
604
  8
0
 10
208.78339067119521
 20
113.4125278557681
 30
0.0
  0
VERTEX
  5
605
  8
0
 10
208.7698366695752
 20
113.4117998460741
 30
0.0
  0
VERTEX
  5
606
  8
0
 10
208.75618796750729
 20
113.41079217411961
 30
0.0
  0
VERTEX
  5
607
  8
0
 10
208.7424490040747
 20
113.4095151977661
 30
0.0
  0
VERTEX
  5
608
  8
0
 10
208.7286242183612
 20
113.4079763154861
 30
0.0
  0
VERTEX
  5
609
  8
0
 10
208.71471804945031
 20
113.4061814460576
 30
0.0
  0
VERTEX
  5
60A
  8
0
 10
208.7007378958142
 20
113.4041409473421
 30
0.0
  0
VERTEX
  5
60B
  8
0
 10
208.68668671684219
 20
113.40186073811761
 30
0.0
  0
VERTEX
  5
60C
  8
0
 10
208.67256895161771
 20
113.3993511762456
 30
0.0
  0
VERTEX
  5
60D
  8
0
 10
208.65839051891879
 20
113.39661818050411
 30
0.0
  0
VERTEX
  5
60E
  8
0
 10
208.64415585782879
 20
113.3936706290601
 30
0.0
  0
VERTEX
  5
60F
  8
0
 10
208.62986940743119
 20
113.3905144406916
 30
0.0
  0
VERTEX
  5
610
  8
0
 10
208.6155370865041
 20
113.3871614529546
 30
0.0
  0
VERTEX
  5
611
  8
0
 10
208.60116333413129
 20
113.3836146252381
 30
0.0
  0
VERTEX
  5
612
  8
0
 10
208.58675258939579
 20
113.3798857950981
 30
0.0
  0
VERTEX
  5
613
  8
0
 10
208.5723092913812
 20
113.3759823610071
 30
0.0
  0
VERTEX
  5
614
  8
0
 10
208.55783935886581
 20
113.371910241743
 30
0.0
  0
VERTEX
  5
615
  8
0
 10
208.5433472309328
 20
113.3676783154731
 30
0.0
  0
VERTEX
  5
616
  8
0
 10
208.5288388263601
 20
113.3632954603641
 30
0.0
  0
VERTEX
  5
617
  8
0
 10
208.5143171045373
 20
113.3587690748885
 30
0.0
  0
VERTEX
  5
618
  8
0
 10
208.4997865045473
 20
113.3541065575191
 30
0.0
  0
VERTEX
  5
619
  8
0
 10
208.4852544248628
 20
113.3493153067281
 30
0.0
  0
VERTEX
  5
61A
  8
0
 10
208.47072382487281
 20
113.3444042006826
 30
0.0
  0
VERTEX
  5
61B
  8
0
 10
208.45620062335519
 20
113.3393806378551
 30
0.0
  0
VERTEX
  5
61C
  8
0
 10
208.4416892593938
 20
113.3342534964126
 30
0.0
  0
VERTEX
  5
61D
  8
0
 10
208.42719417207181
 20
113.32903017482759
 30
0.0
  0
VERTEX
  5
61E
  8
0
 10
208.41272128016729
 20
113.3237180715726
 30
0.0
  0
VERTEX
  5
61F
  8
0
 10
208.39827354306931
 20
113.3183245851201
 30
0.0
  0
VERTEX
  5
620
  8
0
 10
208.3838583592503
 20
113.3128585936371
 30
0.0
  0
VERTEX
  5
621
  8
0
 10
208.36947868809929
 20
113.3073289752906
 30
0.0
  0
VERTEX
  5
622
  8
0
 10
208.35514044839431
 20
113.3017416488586
 30
0.0
  0
VERTEX
  5
623
  8
0
 10
208.3408465995243
 20
113.2961054925081
 30
0.0
  0
VERTEX
  5
624
  8
0
 10
208.32660453996169
 20
113.29042790471161
 30
0.0
  0
VERTEX
  5
625
  8
0
 10
208.31241722909579
 20
113.2847177636361
 30
0.0
  0
VERTEX
  5
626
  8
0
 10
208.29829058570431
 20
113.2789824677541
 30
0.0
  0
VERTEX
  5
627
  8
0
 10
208.2842290488708
 20
113.2732294155381
 30
0.0
  0
VERTEX
  5
628
  8
0
 10
208.27023853737319
 20
113.26746600546061
 30
0.0
  0
VERTEX
  5
629
  8
0
 10
208.2563220106008
 20
113.2617025953831
 30
0.0
  0
VERTEX
  5
62A
  8
0
 10
208.24248538733119
 20
113.25594510408359
 30
0.0
  0
VERTEX
  5
62B
  8
0
 10
208.22873310664829
 20
113.2502024097291
 30
0.0
  0
VERTEX
  5
62C
  8
0
 10
208.2150710873297
 20
113.2444804310976
 30
0.0
  0
VERTEX
  5
62D
  8
0
 10
208.20150376845919
 20
113.2387895260505
 30
0.0
  0
VERTEX
  5
62E
  8
0
 10
208.1880341094257
 20
113.23313709306061
 30
0.0
  0
VERTEX
  5
62F
  8
0
 10
208.17466950870181
 20
113.22753053060011
 30
0.0
  0
VERTEX
  5
630
  8
0
 10
208.1614129256763
 20
113.2219772371416
 30
0.0
  0
VERTEX
  5
631
  8
0
 10
208.14827175882181
 20
113.2164846111576
 30
0.0
  0
VERTEX
  5
632
  8
0
 10
208.1352474878328
 20
113.2110630105096
 30
0.0
  0
VERTEX
  5
633
  8
0
 10
208.12234751118169
 20
113.2057183539756
 30
0.0
  0
VERTEX
  5
634
  8
0
 10
208.10957626795229
 20
113.2004595197226
 30
0.0
  0
VERTEX
  5
635
  8
0
 10
208.09693819722759
 20
113.1952939062231
 30
0.0
  0
VERTEX
  5
636
  8
0
 10
208.08443773809171
 20
113.1902289119496
 30
0.0
  0
VERTEX
  5
637
  8
0
 10
208.07208080932219
 20
113.18527489476359
 30
0.0
  0
VERTEX
  5
638
  8
0
 10
208.0589588784963
 20
113.1800338168446
 30
0.0
  0
VERTEX
  5
639
  8
0
 10
208.04582067103081
 20
113.1747690638136
 30
0.0
  0
VERTEX
  5
63A
  8
0
 10
208.0326661869257
 20
113.1694776762816
 30
0.0
  0
VERTEX
  5
63B
  8
0
 10
208.01949542618129
 20
113.1641626136376
 30
0.0
  0
VERTEX
  5
63C
  8
0
 10
208.0063098684918
 20
113.1588209164926
 30
0.0
  0
VERTEX
  5
63D
  8
0
 10
207.99310803416279
 20
113.15345406454099
 30
0.0
  0
VERTEX
  5
63E
  8
0
 10
207.97989288258319
 20
113.1480605780886
 30
0.0
  0
VERTEX
  5
63F
  8
0
 10
207.96666441375331
 20
113.14264193682961
 30
0.0
  0
VERTEX
  5
640
  8
0
 10
207.95342410736731
 20
113.13719518137511
 30
0.0
  0
VERTEX
  5
641
  8
0
 10
207.9401704837307
 20
113.1317232711141
 30
0.0
  0
VERTEX
  5
642
  8
0
 10
207.92690502253811
 20
113.1262232466576
 30
0.0
  0
VERTEX
  5
643
  8
0
 10
207.91363068317881
 20
113.1206965877001
 30
0.0
  0
VERTEX
  5
644
  8
0
 10
207.90034450626331
 20
113.1151418145471
 30
0.0
  0
VERTEX
  5
645
  8
0
 10
207.88704797148631
 20
113.1095604068931
 30
0.0
  0
VERTEX
  5
646
  8
0
 10
207.87374403823679
 20
113.1039508850436
 30
0.0
  0
VERTEX
  5
647
  8
0
 10
207.86043122682031
 20
113.0983117693041
 30
0.0
  0
VERTEX
  5
648
  8
0
 10
207.84711101693131
 20
113.09264601906359
 30
0.0
  0
VERTEX
  5
649
  8
0
 10
207.83378340856979
 20
113.08695067493311
 30
0.0
  0
VERTEX
  5
64A
  8
0
 10
207.82044988143039
 20
113.0812257369126
 30
0.0
  0
VERTEX
  5
64B
  8
0
 10
207.80711043551281
 20
113.07547268469661
 30
0.0
  0
VERTEX
  5
64C
  8
0
 10
207.7937650708173
 20
113.06969003859059
 30
0.0
  0
VERTEX
  5
64D
  8
0
 10
207.78041526703819
 20
113.0638777985946
 30
0.0
  0
VERTEX
  5
64E
  8
0
 10
207.76706250387019
 20
113.05803596470859
 30
0.0
  0
VERTEX
  5
64F
  8
0
 10
207.7537067813133
 20
113.05216453693259
 30
0.0
  0
VERTEX
  5
650
  8
0
 10
207.74034809936731
 20
113.0462620355721
 30
0.0
  0
VERTEX
  5
651
  8
0
 10
207.72698645803229
 20
113.04032846062709
 30
0.0
  0
VERTEX
  5
652
  8
0
 10
207.71362481669729
 20
113.0343638120976
 30
0.0
  0
VERTEX
  5
653
  8
0
 10
207.70026317536221
 20
113.02836956967811
 30
0.0
  0
VERTEX
  5
654
  8
0
 10
207.6869000543328
 20
113.0223427739796
 30
0.0
  0
VERTEX
  5
655
  8
0
 10
207.67353841299769
 20
113.0162849046966
 30
0.0
  0
VERTEX
  5
656
  8
0
 10
207.66017677166269
 20
113.0101959618291
 30
0.0
  0
VERTEX
  5
657
  8
0
 10
207.64681808971679
 20
113.00407446568261
 30
0.0
  0
VERTEX
  5
658
  8
0
 10
207.63346236715981
 20
112.9979204162571
 30
0.0
  0
VERTEX
  5
659
  8
0
 10
207.62010960399169
 20
112.9917338135526
 30
0.0
  0
VERTEX
  5
65A
  8
0
 10
207.6067598002127
 20
112.9855161372636
 30
0.0
  0
VERTEX
  5
65B
  8
0
 10
207.59341591521161
 20
112.9792629483066
 30
0.0
  0
VERTEX
  5
65C
  8
0
 10
207.5800764692942
 20
112.9729786857651
 30
0.0
  0
VERTEX
  5
65D
  8
0
 10
207.56674294215469
 20
112.9666603902501
 30
0.0
  0
VERTEX
  5
65E
  8
0
 10
207.55341533379331
 20
112.96030806176159
 30
0.0
  0
VERTEX
  5
65F
  8
0
 10
207.54009512390419
 20
112.9539217002996
 30
0.0
  0
VERTEX
  5
660
  8
0
 10
207.5267823124878
 20
112.94750130586409
 30
0.0
  0
VERTEX
  5
661
  8
0
 10
207.51347837923811
 20
112.941046878455
 30
0.0
  0
VERTEX
  5
662
  8
0
 10
207.5001833241557
 20
112.93455693837809
 30
0.0
  0
VERTEX
  5
663
  8
0
 10
207.4868971472402
 20
112.9280329653276
 30
0.0
  0
VERTEX
  5
664
  8
0
 10
207.4736213281862
 20
112.92147347960911
 30
0.0
  0
VERTEX
  5
665
  8
0
 10
207.46035734668831
 20
112.9148784812226
 30
0.0
  0
VERTEX
  5
666
  8
0
 10
207.44710372305181
 20
112.90824797016811
 30
0.0
  0
VERTEX
  5
667
  8
0
 10
207.4338634166657
 20
112.9015819464456
 30
0.0
  0
VERTEX
  5
668
  8
0
 10
207.42063494783579
 20
112.89488041005509
 30
0.0
  0
VERTEX
  5
669
  8
0
 10
207.40742127595081
 20
112.8881418813021
 30
0.0
  0
VERTEX
  5
66A
  8
0
 10
207.3942209213161
 20
112.8813663601866
 30
0.0
  0
VERTEX
  5
66B
  8
0
 10
207.38103388393219
 20
112.8745553264031
 30
0.0
  0
VERTEX
  5
66C
  8
0
 10
207.36786460288229
 20
112.86770582056261
 30
0.0
  0
VERTEX
  5
66D
  8
0
 10
207.35471011877729
 20
112.86082080205411
 30
0.0
  0
VERTEX
  5
66E
  8
0
 10
207.34157191131169
 20
112.85389583179411
 30
0.0
  0
VERTEX
  5
66F
  8
0
 10
207.3284514601803
 20
112.8469353488661
 30
0.0
  0
VERTEX
  5
670
  8
0
 10
207.31534876538279
 20
112.8399363938811
 30
0.0
  0
VERTEX
  5
671
  8
0
 10
207.30226530661369
 20
112.8328989668391
 30
0.0
  0
VERTEX
  5
672
  8
0
 10
207.28920108387319
 20
112.8258230677401
 30
0.0
  0
VERTEX
  5
673
  8
0
 10
207.27615609716131
 20
112.81870721688961
 30
0.0
  0
VERTEX
  5
674
  8
0
 10
207.2631318261723
 20
112.8115543736766
 30
0.0
  0
VERTEX
  5
675
  8
0
 10
207.25012827090629
 20
112.8043615787121
 30
0.0
  0
VERTEX
  5
676
  8
0
 10
207.23714691105769
 20
112.7971288319961
 30
0.0
  0
VERTEX
  5
677
  8
0
 10
207.2241877466268
 20
112.78985761322311
 30
0.0
  0
VERTEX
  5
678
  8
0
 10
207.2112507776132
 20
112.7825464426986
 30
0.0
  0
VERTEX
  5
679
  8
0
 10
207.19833896340629
 20
112.77519384072799
 30
0.0
  0
VERTEX
  5
67A
  8
0
 10
207.18545082431129
 20
112.76780128700599
 30
0.0
  0
VERTEX
  5
67B
  8
0
 10
207.17258784002269
 20
112.76036878153261
 30
0.0
  0
VERTEX
  5
67C
  8
0
 10
207.15975001054071
 20
112.7528948446131
 30
0.0
  0
VERTEX
  5
67D
  8
0
 10
207.14693881555979
 20
112.7453809559421
 30
0.0
  0
VERTEX
  5
67E
  8
0
 10
207.13415425507969
 20
112.7378241561306
 30
0.0
  0
VERTEX
  5
67F
  8
0
 10
207.12139780879531
 20
112.7302274045676
 30
0.0
  0
VERTEX
  5
680
  8
0
 10
207.1086694767063
 20
112.7225877418641
 30
0.0
  0
VERTEX
  5
681
  8
0
 10
207.09596925881269
 20
112.7149066477146
 30
0.0
  0
VERTEX
  5
682
  8
0
 10
207.0832986348093
 20
112.7071826424246
 30
0.0
  0
VERTEX
  5
683
  8
0
 10
207.07065908439029
 20
112.6994157259941
 30
0.0
  0
VERTEX
  5
684
  8
0
 10
207.05804912786121
 20
112.6916073781176
 30
0.0
  0
VERTEX
  5
685
  8
0
 10
207.04547172461119
 20
112.68375611910059
 30
0.0
  0
VERTEX
  5
686
  8
0
 10
207.03292539494569
 20
112.6758604692486
 30
0.0
  0
VERTEX
  5
687
  8
0
 10
207.02041161855931
 20
112.6679219082561
 30
0.0
  0
VERTEX
  5
688
  8
0
 10
207.00793187514631
 20
112.6599389564286
 30
0.0
  0
VERTEX
  5
689
  8
0
 10
206.9954846850122
 20
112.65191309346061
 30
0.0
  0
VERTEX
  5
68A
  8
0
 10
206.9830730075463
 20
112.64384283965759
 30
0.0
  0
VERTEX
  5
68B
  8
0
 10
206.97069684274831
 20
112.6357281950196
 30
0.0
  0
VERTEX
  5
68C
  8
0
 10
206.9583561906183
 20
112.62756767985211
 30
0.0
  0
VERTEX
  5
68D
  8
0
 10
206.9460510511563
 20
112.6193627738496
 30
0.0
  0
VERTEX
  5
68E
  8
0
 10
206.93378438375129
 20
112.6111134770121
 30
0.0
  0
VERTEX
  5
68F
  8
0
 10
206.9215547087087
 20
112.6028183096451
 30
0.0
  0
VERTEX
  5
690
  8
0
 10
206.9093649854178
 20
112.59447875144311
 30
0.0
  0
VERTEX
  5
691
  8
0
 10
206.8972122544892
 20
112.5860918430171
 30
0.0
  0
VERTEX
  5
692
  8
0
 10
206.88510095500661
 20
112.57765906406161
 30
0.0
  0
VERTEX
  5
693
  8
0
 10
206.87302812758111
 20
112.56918041457661
 30
0.0
  0
VERTEX
  5
694
  8
0
 10
206.86099821129611
 20
112.5606544148676
 30
0.0
  0
VERTEX
  5
695
  8
0
 10
206.84900824676271
 20
112.5520825446291
 30
0.0
  0
VERTEX
  5
696
  8
0
 10
206.83706119336969
 20
112.54346332416659
 30
0.0
  0
VERTEX
  5
697
  8
0
 10
206.82515705111729
 20
112.53479675347999
 30
0.0
  0
VERTEX
  5
698
  8
0
 10
206.8132972996998
 20
112.5260813528751
 30
0.0
  0
VERTEX
  5
699
  8
0
 10
206.80148045942269
 20
112.51732008174061
 30
0.0
  0
VERTEX
  5
69A
  8
0
 10
206.7897080099807
 20
112.50850998068761
 30
0.0
  0
VERTEX
  5
69B
  8
0
 10
206.7779829107628
 20
112.49965104971611
 30
0.0
  0
VERTEX
  5
69C
  8
0
 10
206.76630220237971
 20
112.4907447685206
 30
0.0
  0
VERTEX
  5
69D
  8
0
 10
206.75466884422079
 20
112.48178965740659
 30
0.0
  0
VERTEX
  5
69E
  8
0
 10
206.74308283628571
 20
112.4727842366796
 30
0.0
  0
VERTEX
  5
69F
  8
0
 10
206.73154565826931
 20
112.4637314657286
 30
0.0
  0
VERTEX
  5
6A0
  8
0
 10
206.7200558304767
 20
112.4546283851646
 30
0.0
  0
VERTEX
  5
6A1
  8
0
 10
206.70861631229729
 20
112.44547499498761
 30
0.0
  0
VERTEX
  5
6A2
  8
0
 10
206.69722562403621
 20
112.4362727748921
 30
0.0
  0
VERTEX
  5
6A3
  8
0
 10
206.6858867250827
 20
112.4270202451836
 30
0.0
  0
VERTEX
  5
6A4
  8
0
 10
206.6745981357422
 20
112.41771740586211
 30
0.0
  0
VERTEX
  5
6A5
  8
0
 10
206.66336133570931
 20
112.40836277723299
 30
0.0
  0
VERTEX
  5
6A6
  8
0
 10
206.6521778046781
 20
112.398957838991
 30
0.0
  0
VERTEX
  5
6A7
  8
0
 10
206.64104606295481
 20
112.38950259113609
 30
0.0
  0
VERTEX
  5
6A8
  8
0
 10
206.6299690699278
 20
112.3799955539736
 30
0.0
  0
VERTEX
  5
6A9
  8
0
 10
206.61894682559731
 20
112.3704367275036
 30
0.0
  0
VERTEX
  5
6AA
  8
0
 10
206.6079793299632
 20
112.3608261117261
 30
0.0
  0
VERTEX
  5
6AB
  8
0
 10
206.59706658302571
 20
112.3511622269466
 30
0.0
  0
VERTEX
  5
6AC
  8
0
 10
206.58621154417381
 20
112.3414480325541
 30
0.0
  0
VERTEX
  5
6AD
  8
0
 10
206.5754127337128
 20
112.3316805691596
 30
0.0
  0
VERTEX
  5
6AE
  8
0
 10
206.56467163133729
 20
112.3218598367631
 30
0.0
  0
VERTEX
  5
6AF
  8
0
 10
206.55398823704721
 20
112.3119873150591
 30
0.0
  0
VERTEX
  5
6B0
  8
0
 10
206.54336551023169
 20
112.3020600446586
 30
0.0
  0
VERTEX
  5
6B1
  8
0
 10
206.53280049150169
 20
112.2920795052561
 30
0.0
  0
VERTEX
  5
6B2
  8
0
 10
206.5222961402462
 20
112.2820456968516
 30
0.0
  0
VERTEX
  5
6B3
  8
0
 10
206.51185245646531
 20
112.2719586194451
 30
0.0
  0
VERTEX
  5
6B4
  8
0
 10
206.5014709198532
 20
112.2618153136476
 30
0.0
  0
VERTEX
  5
6B5
  8
0
 10
206.49115153041029
 20
112.25161873884809
 30
0.0
  0
VERTEX
  5
6B6
  8
0
 10
206.4808942881362
 20
112.24136889504661
 30
0.0
  0
VERTEX
  5
6B7
  8
0
 10
206.4707006727258
 20
112.2310613431596
 30
0.0
  0
VERTEX
  5
6B8
  8
0
 10
206.4605706841788
 20
112.2207005222706
 30
0.0
  0
VERTEX
  5
6B9
  8
0
 10
206.45050432249519
 20
112.2102834729906
 30
0.0
  0
VERTEX
  5
6BA
  8
0
 10
206.44050454706431
 20
112.1998116750141
 30
0.0
  0
VERTEX
  5
6BB
  8
0
 10
206.4305713578857
 20
112.18928364864659
 30
0.0
  0
VERTEX
  5
6BC
  8
0
 10
206.42070327526531
 20
112.17869791419361
 30
0.0
  0
VERTEX
  5
6BD
  8
0
 10
206.41090325859179
 20
112.1680574310441
 30
0.0
  0
VERTEX
  5
6BE
  8
0
 10
206.4011713078653
 20
112.1573607195036
 30
0.0
  0
VERTEX
  5
6BF
  8
0
 10
206.39150742308581
 20
112.1466062998776
 30
0.0
  0
VERTEX
  5
6C0
  8
0
 10
206.38191308394769
 20
112.1357941721661
 30
0.0
  0
VERTEX
  5
6C1
  8
0
 10
206.37238829045131
 20
112.12492581606359
 30
0.0
  0
VERTEX
  5
6C2
  8
0
 10
206.3629330425963
 20
112.1139997518756
 30
0.0
  0
VERTEX
  5
6C3
  8
0
 10
206.3535502997718
 20
112.10301597960211
 30
0.0
  0
VERTEX
  5
6C4
  8
0
 10
206.34423858228331
 20
112.0919730195486
 30
0.0
  0
VERTEX
  5
6C5
  8
0
 10
206.33499936982531
 20
112.080873831104
 30
0.0
  0
VERTEX
  5
6C6
  8
0
 10
206.32583266239769
 20
112.0697139751851
 30
0.0
  0
VERTEX
  5
6C7
  8
0
 10
206.3167399396952
 20
112.0584964111806
 30
0.0
  0
VERTEX
  5
6C8
  8
0
 10
206.30772120171761
 20
112.04721965939611
 30
0.0
  0
VERTEX
  5
6C9
  8
0
 10
206.2987764484653
 20
112.0358837198316
 30
0.0
  0
VERTEX
  5
6CA
  8
0
 10
206.2899086393268
 20
112.0244885924871
 30
0.0
  0
VERTEX
  5
6CB
  8
0
 10
206.2811162946077
 20
112.01303427736261
 30
0.0
  0
VERTEX
  5
6CC
  8
0
 10
206.2724023736973
 20
112.0015192947636
 30
0.0
  0
VERTEX
  5
6CD
  8
0
 10
206.2636455416463
 20
111.9897631219611
 30
0.0
  0
VERTEX
  5
6CE
  8
0
 10
206.2549967272937
 20
111.9779374035171
 30
0.0
  0
VERTEX
  5
6CF
  8
0
 10
206.24645445094521
 20
111.9660406597371
 30
0.0
  0
VERTEX
  5
6D0
  8
0
 10
206.2380231516843
 20
111.9540758500101
 30
0.0
  0
VERTEX
  5
6D1
  8
0
 10
206.22970282951081
 20
111.9420429743361
 30
0.0
  0
VERTEX
  5
6D2
  8
0
 10
206.22149644381369
 20
111.9299420327151
 30
0.0
  0
VERTEX
  5
6D3
  8
0
 10
206.21340547428781
 20
111.91777598453611
 30
0.0
  0
VERTEX
  5
6D4
  8
0
 10
206.20543288032169
 20
111.90554335010459
 30
0.0
  0
VERTEX
  5
6D5
  8
0
 10
206.19757866191571
 20
111.8932470888096
 30
0.0
  0
VERTEX
  5
6D6
  8
0
 10
206.18984725815329
 20
111.8808857209566
 30
0.0
  0
VERTEX
  5
6D7
  8
0
 10
206.18223866903429
 20
111.86846220593461
 30
0.0
  0
VERTEX
  5
6D8
  8
0
 10
206.1747543742533
 20
111.85597654374359
 30
0.0
  0
VERTEX
  5
6D9
  8
0
 10
206.16739881289379
 20
111.84342873438359
 30
0.0
  0
VERTEX
  5
6DA
  8
0
 10
206.16017198495581
 20
111.8308217372436
 30
0.0
  0
VERTEX
  5
6DB
  8
0
 10
206.1530768498283
 20
111.8181540726291
 30
0.0
  0
VERTEX
  5
6DC
  8
0
 10
206.14611488720581
 20
111.80542722023461
 30
0.0
  0
VERTEX
  5
6DD
  8
0
 10
206.13928757678281
 20
111.7926441394491
 30
0.0
  0
VERTEX
  5
6DE
  8
0
 10
206.1325978779482
 20
111.7798018708836
 30
0.0
  0
VERTEX
  5
6DF
  8
0
 10
206.12604579070211
 20
111.7669048536216
 30
0.0
  0
VERTEX
  5
6E0
  8
0
 10
206.1196357541283
 20
111.7539516079686
 30
0.0
  0
VERTEX
  5
6E1
  8
0
 10
206.11336776822631
 20
111.7409450933136
 30
0.0
  0
VERTEX
  5
6E2
  8
0
 10
206.10724479238519
 20
111.7278838299621
 30
0.0
  0
VERTEX
  5
6E3
  8
0
 10
206.1012697859943
 20
111.7147692976086
 30
0.0
  0
VERTEX
  5
6E4
  8
0
 10
206.09544274905321
 20
111.70160297594759
 30
0.0
  0
VERTEX
  5
6E5
  8
0
 10
206.08976516125679
 20
111.6883863446736
 30
0.0
  0
VERTEX
  5
6E6
  8
0
 10
206.08424146168829
 20
111.6751194037866
 30
0.0
  0
VERTEX
  5
6E7
  8
0
 10
206.07887165034771
 20
111.6618021532866
 30
0.0
  0
VERTEX
  5
6E8
  8
0
 10
206.0736586866243
 20
111.64843607286799
 30
0.0
  0
VERTEX
  5
6E9
  8
0
 10
206.06860257051781
 20
111.63502264222559
 30
0.0
  0
VERTEX
  5
6EA
  8
0
 10
206.06370922080629
 20
111.6215618613591
 30
0.0
  0
VERTEX
  5
6EB
  8
0
 10
206.05897567810069
 20
111.6080552099631
 30
0.0
  0
VERTEX
  5
6EC
  8
0
 10
206.05440786117919
 20
111.5945041677321
 30
0.0
  0
VERTEX
  5
6ED
  8
0
 10
206.05000577004171
 20
111.5809087346661
 30
0.0
  0
VERTEX
  5
6EE
  8
0
 10
206.04577236407729
 20
111.56726891076499
 30
0.0
  0
VERTEX
  5
6EF
  8
0
 10
206.04170764328569
 20
111.55358617572359
 30
0.0
  0
VERTEX
  5
6F0
  8
0
 10
206.03781604675069
 20
111.5398620092361
 30
0.0
  0
VERTEX
  5
6F1
  8
0
 10
206.0340975744723
 20
111.5260964113026
 30
0.0
  0
VERTEX
  5
6F2
  8
0
 10
206.03055518583929
 20
111.5122908616176
 30
0.0
  0
VERTEX
  5
6F3
  8
0
 10
206.02719036054631
 20
111.4984468398756
 30
0.0
  0
VERTEX
  5
6F4
  8
0
 10
206.0240045782877
 20
111.48456286638211
 30
0.0
  0
VERTEX
  5
6F5
  8
0
 10
206.02100227814719
 20
111.4706419005261
 30
0.0
  0
VERTEX
  5
6F6
  8
0
 10
206.01818198043031
 20
111.4566854220021
 30
0.0
  0
VERTEX
  5
6F7
  8
0
 10
206.0155481242202
 20
111.44269195111561
 30
0.0
  0
VERTEX
  5
6F8
  8
0
 10
206.01310070951729
 20
111.4286629675611
 30
0.0
  0
VERTEX
  5
6F9
  8
0
 10
206.0108441754048
 20
111.4145999510331
 30
0.0
  0
VERTEX
  5
6FA
  8
0
 10
206.0087785218827
 20
111.4005029015316
 30
0.0
  0
VERTEX
  5
6FB
  8
0
 10
206.00690522864571
 20
111.3863747784456
 30
0.0
  0
VERTEX
  5
6FC
  8
0
 10
206.0052272550827
 20
111.3722141020806
 30
0.0
  0
VERTEX
  5
6FD
  8
0
 10
206.0037475605827
 20
111.3580223521311
 30
0.0
  0
VERTEX
  5
6FE
  8
0
 10
206.00246614514569
 20
111.34380100829161
 30
0.0
  0
VERTEX
  5
6FF
  8
0
 10
206.00138596816069
 20
111.32955007056211
 30
0.0
  0
VERTEX
  5
700
  8
0
 10
206.0005085093222
 20
111.31527101863711
 30
0.0
  0
VERTEX
  5
701
  8
0
 10
205.99983524832481
 20
111.30096533221111
 30
0.0
  0
VERTEX
  5
702
  8
0
 10
205.99937062425181
 20
111.286633011284
 30
0.0
  0
VERTEX
  5
703
  8
0
 10
205.99911315740869
 20
111.2722740558561
 30
0.0
  0
VERTEX
  5
704
  8
0
 10
205.9990672868793
 20
111.2578899456216
 30
0.0
  0
VERTEX
  5
705
  8
0
 10
205.99923449235769
 20
111.24348216027509
 30
0.0
  0
VERTEX
  5
706
  8
0
 10
205.99961625353879
 20
111.2290506998166
 30
0.0
  0
VERTEX
  5
707
  8
0
 10
206.0002140501168
 20
111.2145970439406
 30
0.0
  0
VERTEX
  5
708
  8
0
 10
206.0010308414808
 20
111.20012267234161
 30
0.0
  0
VERTEX
  5
709
  8
0
 10
206.0020666276308
 20
111.1856261053251
 30
0.0
  0
VERTEX
  5
70A
  8
0
 10
206.0033258476503
 20
111.1711117819746
 30
0.0
  0
VERTEX
  5
70B
  8
0
 10
206.00480998123379
 20
111.15657674290109
 30
0.0
  0
VERTEX
  5
70C
  8
0
 10
206.00651902838121
 20
111.1420239474936
 30
0.0
  0
VERTEX
  5
70D
  8
0
 10
206.0084574281762
 20
111.1274533957521
 30
0.0
  0
VERTEX
  5
70E
  8
0
 10
206.01062518061889
 20
111.1128665673711
 30
0.0
  0
VERTEX
  5
70F
  8
0
 10
206.01302524509771
 20
111.09826494204511
 30
0.0
  0
VERTEX
  5
710
  8
0
 10
206.01566058100229
 20
111.0836485197741
 30
0.0
  0
VERTEX
  5
711
  8
0
 10
206.01852970863769
 20
111.0690173005581
 30
0.0
  0
VERTEX
  5
712
  8
0
 10
206.0216385467823
 20
111.0543727640916
 30
0.0
  0
VERTEX
  5
713
  8
0
 10
206.02498709543579
 20
111.03971786976361
 30
0.0
  0
VERTEX
  5
714
  8
0
 10
206.0270927007092
 20
111.03070505056409
 30
0.0
  0
VERTEX
  5
715
  8
0
 10
206.02945429313129
 20
111.0205010772921
 30
0.0
  0
VERTEX
  5
716
  8
0
 10
206.03207779147979
 20
111.0092287645911
 30
0.0
  0
VERTEX
  5
717
  8
0
 10
206.0349676348383
 20
110.99700944741009
 30
0.0
  0
VERTEX
  5
718
  8
0
 10
206.0381297419847
 20
110.98396594039259
 30
0.0
  0
VERTEX
  5
719
  8
0
 10
206.0415729910863
 20
110.9702195784876
 30
0.0
  0
VERTEX
  5
71A
  8
0
 10
206.04530330092089
 20
110.9558916966441
 30
0.0
  0
VERTEX
  5
71B
  8
0
 10
206.0493236308773
 20
110.9411065892001
 30
0.0
  0
VERTEX
  5
71C
  8
0
 10
206.05364285912279
 20
110.9259841114101
 30
0.0
  0
VERTEX
  5
71D
  8
0
 10
206.05826690443519
 20
110.91064855761211
 30
0.0
  0
VERTEX
  5
71E
  8
0
 10
206.06320316528729
 20
110.8952212627551
 30
0.0
  0
VERTEX
  5
71F
  8
0
 10
206.06845460106771
 20
110.8798250414826
 30
0.0
  0
VERTEX
  5
720
  8
0
 10
206.0740300899437
 20
110.8645812287436
 30
0.0
  0
VERTEX
  5
721
  8
0
 10
206.0799340709988
 20
110.8496111594871
 30
0.0
  0
VERTEX
  5
722
  8
0
 10
206.08617542239969
 20
110.8350376483566
 30
0.0
  0
VERTEX
  5
723
  8
0
 10
206.0927571035358
 20
110.8209849896901
 30
0.0
  0
VERTEX
  5
724
  8
0
 10
206.09968799257371
 20
110.80757303874211
 30
0.0
  0
VERTEX
  5
725
  8
0
 10
206.1069725285972
 20
110.7949231304616
 30
0.0
  0
VERTEX
  5
726
  8
0
 10
206.11461811007879
 20
110.7831610388811
 30
0.0
  0
VERTEX
  5
727
  8
0
 10
206.12263065579631
 20
110.7724051395606
 30
0.0
  0
VERTEX
  5
728
  8
0
 10
206.13101608452769
 20
110.7627797268381
 30
0.0
  0
VERTEX
  5
729
  8
0
 10
206.1397803150513
 20
110.75440613566261
 30
0.0
  0
VERTEX
  5
72A
  8
0
 10
206.14892926614479
 20
110.7474071806776
 30
0.0
  0
VERTEX
  5
72B
  8
0
 10
206.15847181597519
 20
110.741904196832
 30
0.0
  0
VERTEX
  5
72C
  8
0
 10
206.1684109239317
 20
110.7380199987696
 30
0.0
  0
VERTEX
  5
72D
  8
0
 10
206.17875546818129
 20
110.73587740113361
 30
0.0
  0
VERTEX
  5
72E
  8
0
 10
206.1907040012687
 20
110.7356362109301
 30
0.0
  0
VERTEX
  5
72F
  8
0
 10
206.20105002521279
 20
110.7377610522321
 30
0.0
  0
VERTEX
  5
730
  8
0
 10
206.20990303740629
 20
110.74203588964259
 30
0.0
  0
VERTEX
  5
731
  8
0
 10
206.21737401493681
 20
110.7482461674591
 30
0.0
  0
VERTEX
  5
732
  8
0
 10
206.2235709755027
 20
110.7561788096736
 30
0.0
  0
VERTEX
  5
733
  8
0
 10
206.22860637588619
 20
110.76561926058361
 30
0.0
  0
VERTEX
  5
734
  8
0
 10
206.23258675409119
 20
110.77635296448661
 30
0.0
  0
VERTEX
  5
735
  8
0
 10
206.23562604659421
 20
110.7881653656801
 30
0.0
  0
VERTEX
  5
736
  8
0
 10
206.23783227109371
 20
110.8008433881561
 30
0.0
  0
VERTEX
  5
737
  8
0
 10
206.23931492498281
 20
110.81417247621209
 30
0.0
  0
VERTEX
  5
738
  8
0
 10
206.24018498534869
 20
110.82793807414561
 30
0.0
  0
VERTEX
  5
739
  8
0
 10
206.24055194958481
 20
110.8419256262541
 30
0.0
  0
VERTEX
  5
73A
  8
0
 10
206.24052679477839
 20
110.85592205652959
 30
0.0
  0
VERTEX
  5
73B
  8
0
 10
206.24021901832231
 20
110.8697128092696
 30
0.0
  0
VERTEX
  5
73C
  8
0
 10
206.23973811760979
 20
110.8830833287716
 30
0.0
  0
VERTEX
  5
73D
  8
0
 10
206.2391950697282
 20
110.8958205390276
 30
0.0
  0
VERTEX
  5
73E
  8
0
 10
206.23869789237619
 20
110.9077084046406
 30
0.0
  0
VERTEX
  5
73F
  8
0
 10
206.2383590423357
 20
110.91853236990811
 30
0.0
  0
VERTEX
  5
740
  8
0
 10
206.2382880169998
 20
110.92808083851661
 30
0.0
  0
VERTEX
  5
741
  8
0
 10
206.2385943137613
 20
110.9361392547636
 30
0.0
  0
VERTEX
  5
742
  8
0
 10
206.23981950080719
 20
110.9505396416376
 30
0.0
  0
VERTEX
  5
743
  8
0
 10
206.2413790988102
 20
110.9649104346216
 30
0.0
  0
VERTEX
  5
744
  8
0
 10
206.24326274990881
 20
110.97925163371561
 30
0.0
  0
VERTEX
  5
745
  8
0
 10
206.24546749471369
 20
110.99355879983609
 30
0.0
  0
VERTEX
  5
746
  8
0
 10
206.2479844550582
 20
111.00783045328861
 30
0.0
  0
VERTEX
  5
747
  8
0
 10
206.25080919185879
 20
111.0220636346841
 30
0.0
  0
VERTEX
  5
748
  8
0
 10
206.2539313472538
 20
111.03625538463361
 30
0.0
  0
VERTEX
  5
749
  8
0
 10
206.25734796185429
 20
111.0504042234426
 30
0.0
  0
VERTEX
  5
74A
  8
0
 10
206.2610501574932
 20
111.0645057120276
 30
0.0
  0
VERTEX
  5
74B
  8
0
 10
206.26503349508729
 20
111.0785598503886
 30
0.0
  0
VERTEX
  5
74C
  8
0
 10
206.26928909646929
 20
111.0925621994421
 30
0.0
  0
VERTEX
  5
74D
  8
0
 10
206.2738110428613
 20
111.10651275918811
 30
0.0
  0
VERTEX
  5
74E
  8
0
 10
206.2785919357907
 20
111.12040561084859
 30
0.0
  0
VERTEX
  5
74F
  8
0
 10
206.28362733617419
 20
111.1342407544236
 30
0.0
  0
VERTEX
  5
750
  8
0
 10
206.28890984553919
 20
111.14801523052409
 30
0.0
  0
VERTEX
  5
751
  8
0
 10
206.29443206541319
 20
111.1617260797611
 30
0.0
  0
VERTEX
  5
752
  8
0
 10
206.30018807701811
 20
111.17537034274559
 30
0.0
  0
VERTEX
  5
753
  8
0
 10
206.30617048188179
 20
111.18894801947761
 30
0.0
  0
VERTEX
  5
754
  8
0
 10
206.31237336122581
 20
111.2024531911791
 30
0.0
  0
VERTEX
  5
755
  8
0
 10
206.31878931657769
 20
111.2158858578501
 30
0.0
  0
VERTEX
  5
756
  8
0
 10
206.3254124291598
 20
111.22924158040711
 30
0.0
  0
VERTEX
  5
757
  8
0
 10
206.3322367801938
 20
111.2425203588501
 30
0.0
  0
VERTEX
  5
758
  8
0
 10
206.33925349151281
 20
111.2557177540956
 30
0.0
  0
VERTEX
  5
759
  8
0
 10
206.34645960372771
 20
111.2688322864491
 30
0.0
  0
VERTEX
  5
75A
  8
0
 10
206.35384475897729
 20
111.281859516827
 30
0.0
  0
VERTEX
  5
75B
  8
0
 10
206.3614030384833
 20
111.2947994452296
 30
0.0
  0
VERTEX
  5
75C
  8
0
 10
206.3691300031623
 20
111.3076491122676
 30
0.0
  0
VERTEX
  5
75D
  8
0
 10
206.37701677484719
 20
111.3204055585521
 30
0.0
  0
VERTEX
  5
75E
  8
0
 10
206.38505891445479
 20
111.3330658246941
 30
0.0
  0
VERTEX
  5
75F
  8
0
 10
206.39324754381781
 20
111.3456269513046
 30
0.0
  0
VERTEX
  5
760
  8
0
 10
206.40157674415829
 20
111.3580889383836
 30
0.0
  0
VERTEX
  5
761
  8
0
 10
206.4100405966982
 20
111.3704473468476
 30
0.0
  0
VERTEX
  5
762
  8
0
 10
206.41863170296531
 20
111.3826992173076
 30
0.0
  0
VERTEX
  5
763
  8
0
 10
206.42734562387571
 20
111.3948430700691
 30
0.0
  0
VERTEX
  5
764
  8
0
 10
206.4361720015682
 20
111.4068774254376
 30
0.0
  0
VERTEX
  5
765
  8
0
 10
206.44510639695929
 20
111.4187978443296
 30
0.0
  0
VERTEX
  5
766
  8
0
 10
206.45414289127069
 20
111.43060284705059
 30
0.0
  0
VERTEX
  5
767
  8
0
 10
206.46327260633569
 20
111.4422879945171
 30
0.0
  0
VERTEX
  5
768
  8
0
 10
206.47249110307081
 20
111.4538547664236
 30
0.0
  0
VERTEX
  5
769
  8
0
 10
206.48179098300329
 20
111.4652972439921
 30
0.0
  0
VERTEX
  5
76A
  8
0
 10
206.4911648476608
 20
111.4766154272226
 30
0.0
  0
VERTEX
  5
76B
  8
0
 10
206.50060825795981
 20
111.4878033973371
 30
0.0
  0
VERTEX
  5
76C
  8
0
 10
206.51011233573331
 20
111.4988626340301
 30
0.0
  0
VERTEX
  5
76D
  8
0
 10
206.51967116220331
 20
111.5097872185236
 30
0.0
  0
VERTEX
  5
76E
  8
0
 10
206.52927733889729
 20
111.5205771508176
 30
0.0
  0
VERTEX
  5
76F
  8
0
 10
206.53892642673171
 20
111.5312294715231
 30
0.0
  0
VERTEX
  5
770
  8
0
 10
206.5486095475398
 20
111.5417412212511
 30
0.0
  0
VERTEX
  5
771
  8
0
 10
206.55832226223779
 20
111.5521094406126
 30
0.0
  0
VERTEX
  5
772
  8
0
 10
206.5680556926587
 20
111.5623326499131
 30
0.0
  0
VERTEX
  5
773
  8
0
 10
206.5778053997193
 20
111.5724078897636
 30
0.0
  0
VERTEX
  5
774
  8
0
 10
206.5882387256388
 20
111.5830380150516
 30
0.0
  0
VERTEX
  5
775
  8
0
 10
206.5987268002547
 20
111.5935941556146
 30
0.0
  0
VERTEX
  5
776
  8
0
 10
206.6092696235672
 20
111.60407779114711
 30
0.0
  0
VERTEX
  5
777
  8
0
 10
206.61986571588179
 20
111.6144859622601
 30
0.0
  0
VERTEX
  5
778
  8
0
 10
206.63051359750381
 20
111.62482310803711
 30
0.0
  0
VERTEX
  5
779
  8
0
 10
206.64121474812771
 20
111.6350862690891
 30
0.0
  0
VERTEX
  5
77A
  8
0
 10
206.65196768805919
 20
111.6452784048051
 30
0.0
  0
VERTEX
  5
77B
  8
0
 10
206.66277241729821
 20
111.6553995151851
 30
0.0
  0
VERTEX
  5
77C
  8
0
 10
206.6736289358447
 20
111.6654496002291
 30
0.0
  0
VERTEX
  5
77D
  8
0
 10
206.68453576400429
 20
111.6754301396316
 30
0.0
  0
VERTEX
  5
77E
  8
0
 10
206.69549142208231
 20
111.6853411333926
 30
0.0
  0
VERTEX
  5
77F
  8
0
 10
206.7064973897732
 20
111.6951825815121
 30
0.0
  0
VERTEX
  5
780
  8
0
 10
206.71755218738269
 20
111.7049574433791
 30
0.0
  0
VERTEX
  5
781
  8
0
 10
206.72865581491081
 20
111.71466275960459
 30
0.0
  0
VERTEX
  5
782
  8
0
 10
206.73980827235729
 20
111.7243014895776
 30
0.0
  0
VERTEX
  5
783
  8
0
 10
206.7510080800277
 20
111.73387511299261
 30
0.0
  0
VERTEX
  5
784
  8
0
 10
206.7622537582277
 20
111.7433806704606
 30
0.0
  0
VERTEX
  5
785
  8
0
 10
206.7735482663463
 20
111.7528211213706
 30
0.0
  0
VERTEX
  5
786
  8
0
 10
206.78488716529969
 20
111.7621979454171
 30
0.0
  0
VERTEX
  5
787
  8
0
 10
206.7962734144773
 20
111.7715096629056
 30
0.0
  0
VERTEX
  5
788
  8
0
 10
206.8077040544897
 20
111.78075775353059
 30
0.0
  0
VERTEX
  5
789
  8
0
 10
206.81917908533731
 20
111.78994221729209
 30
0.0
  0
VERTEX
  5
78A
  8
0
 10
206.8306985070198
 20
111.7990645338846
 30
0.0
  0
VERTEX
  5
78B
  8
0
 10
206.8422623195373
 20
111.8081261830026
 30
0.0
  0
VERTEX
  5
78C
  8
0
 10
206.85386904319529
 20
111.8171242052571
 30
0.0
  0
VERTEX
  5
78D
  8
0
 10
206.86551867799369
 20
111.82606303973159
 30
0.0
  0
VERTEX
  5
78E
  8
0
 10
206.87720974423829
 20
111.8349412067316
 30
0.0
  0
VERTEX
  5
78F
  8
0
 10
206.88894372162321
 20
111.84375870625711
 30
0.0
  0
VERTEX
  5
790
  8
0
 10
206.90071913045421
 20
111.8525184976971
 30
0.0
  0
VERTEX
  5
791
  8
0
 10
206.91253449103669
 20
111.86121910135709
 30
0.0
  0
VERTEX
  5
792
  8
0
 10
206.92439128306529
 20
111.8698605172371
 30
0.0
  0
VERTEX
  5
793
  8
0
 10
206.93628802684529
 20
111.8784457047261
 30
0.0
  0
VERTEX
  5
794
  8
0
 10
206.94822472237669
 20
111.88697466382411
 30
0.0
  0
VERTEX
  5
795
  8
0
 10
206.96019841027069
 20
111.8954459148366
 30
0.0
  0
VERTEX
  5
796
  8
0
 10
206.97221204991629
 20
111.9038624171526
 30
0.0
  0
VERTEX
  5
797
  8
0
 10
206.9842641616188
 20
111.91222417077211
 30
0.0
  0
VERTEX
  5
798
  8
0
 10
206.99635178598919
 20
111.9205311756951
 30
0.0
  0
VERTEX
  5
799
  8
0
 10
207.00847788241671
 20
111.9287834319216
 30
0.0
  0
VERTEX
  5
79A
  8
0
 10
207.0206409712068
 20
111.9369824191461
 30
0.0
  0
VERTEX
  5
79B
  8
0
 10
207.0328395726647
 20
111.9451296170631
 30
0.0
  0
VERTEX
  5
79C
  8
0
 10
207.04507368679069
 20
111.9532235459781
 30
0.0
  0
VERTEX
  5
79D
  8
0
 10
207.05734331358479
 20
111.9612656855856
 30
0.0
  0
VERTEX
  5
79E
  8
0
 10
207.06964697335229
 20
111.9692575155801
 30
0.0
  0
VERTEX
  5
79F
  8
0
 10
207.08198466609329
 20
111.9771990359616
 30
0.0
  0
VERTEX
  5
7A0
  8
0
 10
207.09435639180771
 20
111.9850902467301
 30
0.0
  0
VERTEX
  5
7A1
  8
0
 10
207.10676067080121
 20
111.9929311478855
 30
0.0
  0
VERTEX
  5
7A2
  8
0
 10
207.1191989827683
 20
112.00072469881709
 30
0.0
  0
VERTEX
  5
7A3
  8
0
 10
207.13166836831971
 20
112.00846941983011
 30
0.0
  0
VERTEX
  5
7A4
  8
0
 10
207.1441703071502
 20
112.01616531092461
 30
0.0
  0
VERTEX
  5
7A5
  8
0
 10
207.1567033195652
 20
112.0238153314896
 30
0.0
  0
VERTEX
  5
7A6
  8
0
 10
207.16926592587029
 20
112.03141948152511
 30
0.0
  0
VERTEX
  5
7A7
  8
0
 10
207.1818596057598
 20
112.0389762813366
 30
0.0
  0
VERTEX
  5
7A8
  8
0
 10
207.19448435923371
 20
112.0464886903131
 30
0.0
  0
VERTEX
  5
7A9
  8
0
 10
207.20713722690331
 20
112.0539552287601
 30
0.0
  0
VERTEX
  5
7AA
  8
0
 10
207.2198182087682
 20
112.0613788560666
 30
0.0
  0
VERTEX
  5
7AB
  8
0
 10
207.23252878452331
 20
112.0687580925381
 30
0.0
  0
VERTEX
  5
7AC
  8
0
 10
207.24526599477929
 20
112.0760944178691
 30
0.0
  0
VERTEX
  5
7AD
  8
0
 10
207.2580313192307
 20
112.0833878320596
 30
0.0
  0
VERTEX
  5
7AE
  8
0
 10
207.2708232781832
 20
112.09063981480411
 30
0.0
  0
VERTEX
  5
7AF
  8
0
 10
207.28364335133119
 20
112.09785036610261
 30
0.0
  0
VERTEX
  5
7B0
  8
0
 10
207.29648709959119
 20
112.1050194859551
 30
0.0
  0
VERTEX
  5
7B1
  8
0
 10
207.30935748235231
 20
112.1121486540561
 30
0.0
  0
VERTEX
  5
7B2
  8
0
 10
207.32225301991971
 20
112.1192393501001
 30
0.0
  0
VERTEX
  5
7B3
  8
0
 10
207.33517223259921
 20
112.1262900943926
 30
0.0
  0
VERTEX
  5
7B4
  8
0
 10
207.34811512039079
 20
112.1333008869336
 30
0.0
  0
VERTEX
  5
7B5
  8
0
 10
207.36108168329429
 20
112.1402761668066
 30
0.0
  0
VERTEX
  5
7B6
  8
0
 10
207.37407192130971
 20
112.1472129746226
 30
0.0
  0
VERTEX
  5
7B7
  8
0
 10
207.38708583443719
 20
112.1541127900761
 30
0.0
  0
VERTEX
  5
7B8
  8
0
 10
207.40012046328781
 20
112.1609770928616
 30
0.0
  0
VERTEX
  5
7B9
  8
0
 10
207.41317580786131
 20
112.16780440328461
 30
0.0
  0
VERTEX
  5
7BA
  8
0
 10
207.42625334785239
 20
112.1745976807341
 30
0.0
  0
VERTEX
  5
7BB
  8
0
 10
207.43935160356619
 20
112.1813569252101
 30
0.0
  0
VERTEX
  5
7BC
  8
0
 10
207.45247057500319
 20
112.18808213671259
 30
0.0
  0
VERTEX
  5
7BD
  8
0
 10
207.46560730277429
 20
112.1947733152416
 30
0.0
  0
VERTEX
  5
7BE
  8
0
 10
207.4787647462683
 20
112.2014319404916
 30
0.0
  0
VERTEX
  5
7BF
  8
0
 10
207.49193994609621
 20
112.2080580124626
 30
0.0
  0
VERTEX
  5
7C0
  8
0
 10
207.50513438195279
 20
112.2146530108491
 30
0.0
  0
VERTEX
  5
7C1
  8
0
 10
207.51834657414321
 20
112.2212169356511
 30
0.0
  0
VERTEX
  5
7C2
  8
0
 10
207.53157504297329
 20
112.2277512665631
 30
0.0
  0
VERTEX
  5
7C3
  8
0
 10
207.5448212681373
 20
112.2342545238906
 30
0.0
  0
VERTEX
  5
7C4
  8
0
 10
207.55808229024629
 20
112.2407281873281
 30
0.0
  0
VERTEX
  5
7C5
  8
0
 10
207.57136106868921
 20
112.2471737365701
 30
0.0
  0
VERTEX
  5
7C6
  8
0
 10
207.5846531643827
 20
112.25359117161661
 30
0.0
  0
VERTEX
  5
7C7
  8
0
 10
207.5979615367157
 20
112.25998049246761
 30
0.0
  0
VERTEX
  5
7C8
  8
0
 10
207.61128322629921
 20
112.26634317881761
 30
0.0
  0
VERTEX
  5
7C9
  8
0
 10
207.62461971282769
 20
112.2726792306666
 30
0.0
  0
VERTEX
  5
7CA
  8
0
 10
207.6379695166068
 20
112.2789886480146
 30
0.0
  0
VERTEX
  5
7CB
  8
0
 10
207.6513311579418
 20
112.28527439025061
 30
0.0
  0
VERTEX
  5
7CC
  8
0
 10
207.66470611652721
 20
112.2915334979856
 30
0.0
  0
VERTEX
  5
7CD
  8
0
 10
207.67809291266869
 20
112.2977704103031
 30
0.0
  0
VERTEX
  5
7CE
  8
0
 10
207.69149154636631
 20
112.3039821678141
 30
0.0
  0
VERTEX
  5
7CF
  8
0
 10
207.70490053792531
 20
112.31017172990759
 30
0.0
  0
VERTEX
  5
7D0
  8
0
 10
207.7183198873457
 20
112.3163390965836
 30
0.0
  0
VERTEX
  5
7D1
  8
0
 10
207.73175107432229
 20
112.3224842678421
 30
0.0
  0
VERTEX
  5
7D2
  8
0
 10
207.74279551407031
 20
112.32737761755359
 30
0.0
  0
VERTEX
  5
7D3
  8
0
 10
207.7542764636957
 20
112.33218366528961
 30
0.0
  0
VERTEX
  5
7D4
  8
0
 10
207.76617024808681
 20
112.3369127689116
 30
0.0
  0
VERTEX
  5
7D5
  8
0
 10
207.77845319213131
 20
112.3415708471976
 30
0.0
  0
VERTEX
  5
7D6
  8
0
 10
207.79110014102281
 20
112.3461682580091
 30
0.0
  0
VERTEX
  5
7D7
  8
0
 10
207.80408741964931
 20
112.3507109201241
 30
0.0
  0
VERTEX
  5
7D8
  8
0
 10
207.8173913528988
 20
112.3552106710986
 30
0.0
  0
VERTEX
  5
7D9
  8
0
 10
207.8309882656593
 20
112.35967195001609
 30
0.0
  0
VERTEX
  5
7DA
  8
0
 10
207.84485300312431
 20
112.36410511473809
 30
0.0
  0
VERTEX
  5
7DB
  8
0
 10
207.85896336987611
 20
112.3685175637371
 30
0.0
  0
VERTEX
  5
7DC
  8
0
 10
207.87329421110871
 20
112.37291965487459
 30
0.0
  0
VERTEX
  5
7DD
  8
0
 10
207.88782037201531
 20
112.3773173069286
 30
0.0
  0
VERTEX
  5
7DE
  8
0
 10
207.9025181774837
 20
112.3817193980661
 30
0.0
  0
VERTEX
  5
7DF
  8
0
 10
207.9173654320968
 20
112.3861362861486
 30
0.0
  0
VERTEX
  5
7E0
  8
0
 10
207.9323369810478
 20
112.39057241025959
 30
0.0
  0
VERTEX
  5
7E1
  8
0
 10
207.9474091492248
 20
112.3950396079551
 30
0.0
  0
VERTEX
  5
7E2
  8
0
 10
207.96255678182121
 20
112.3995452777076
 30
0.0
  0
VERTEX
  5
7E3
  8
0
 10
207.97775768341981
 20
112.4040968179896
 30
0.0
  0
VERTEX
  5
7E4
  8
0
 10
207.9929852195192
 20
112.4087016272736
 30
0.0
  0
VERTEX
  5
7E5
  8
0
 10
208.0082171947023
 20
112.4133715431156
 30
0.0
  0
VERTEX
  5
7E6
  8
0
 10
208.02342993385679
 20
112.4181110045991
 30
0.0
  0
VERTEX
  5
7E7
  8
0
 10
208.0385982821762
 20
112.4229318492801
 30
0.0
  0
VERTEX
  5
7E8
  8
0
 10
208.0536985645488
 20
112.42783999593649
 30
0.0
  0
VERTEX
  5
7E9
  8
0
 10
208.06870710586219
 20
112.4328443227356
 30
0.0
  0
VERTEX
  5
7EA
  8
0
 10
208.08360023100479
 20
112.4379522281496
 30
0.0
  0
VERTEX
  5
7EB
  8
0
 10
208.09835278516979
 20
112.4431740700401
 30
0.0
  0
VERTEX
  5
7EC
  8
0
 10
208.11293961355079
 20
112.4485172468796
 30
0.0
  0
VERTEX
  5
7ED
  8
0
 10
208.12734000042479
 20
112.4539891571406
 30
0.0
  0
VERTEX
  5
7EE
  8
0
 10
208.14152879098529
 20
112.4595986789901
 30
0.0
  0
VERTEX
  5
7EF
  8
0
 10
208.1554793507313
 20
112.46535469059511
 30
0.0
  0
VERTEX
  5
7F0
  8
0
 10
208.16917096393971
 20
112.4712660701226
 30
0.0
  0
VERTEX
  5
7F1
  8
0
 10
208.18257847580429
 20
112.4773387363506
 30
0.0
  0
VERTEX
  5
7F2
  8
0
 10
208.19567673151829
 20
112.4835830471406
 30
0.0
  0
VERTEX
  5
7F3
  8
0
 10
208.20844353566429
 20
112.4900064009651
 30
0.0
  0
VERTEX
  5
7F4
  8
0
 10
208.22085373343569
 20
112.4966176759911
 30
0.0
  0
VERTEX
  5
7F5
  8
0
 10
208.23288364972069
 20
112.5034257503856
 30
0.0
  0
VERTEX
  5
7F6
  8
0
 10
208.24450812971281
 20
112.5104365429266
 30
0.0
  0
VERTEX
  5
7F7
  8
0
 10
208.2557049779943
 20
112.5176604114756
 30
0.0
  0
VERTEX
  5
7F8
  8
0
 10
208.26644903975881
 20
112.5251062341996
 30
0.0
  0
VERTEX
  5
7F9
  8
0
 10
208.27671663989429
 20
112.5327799298766
 30
0.0
  0
VERTEX
  5
7FA
  8
0
 10
208.28648410328881
 20
112.5406918563681
 30
0.0
  0
VERTEX
  5
7FB
  8
0
 10
208.29572627513571
 20
112.54884941214659
 30
0.0
  0
VERTEX
  5
7FC
  8
0
 10
208.30441948032319
 20
112.55726147537909
 30
0.0
  0
VERTEX
  5
7FD
  8
0
 10
208.31254152343371
 20
112.5659369242326
 30
0.0
  0
VERTEX
  5
7FE
  8
0
 10
208.32228827110529
 20
112.57699764062011
 30
0.0
  0
VERTEX
  5
7FF
  8
0
 10
208.3319610340518
 20
112.58815601684459
 30
0.0
  0
VERTEX
  5
800
  8
0
 10
208.34156129196771
 20
112.5994046544336
 30
0.0
  0
VERTEX
  5
801
  8
0
 10
208.3510905245478
 20
112.6107450330816
 30
0.0
  0
VERTEX
  5
802
  8
0
 10
208.36055169118069
 20
112.6221697543161
 30
0.0
  0
VERTEX
  5
803
  8
0
 10
208.3699447918668
 20
112.6336788181371
 30
0.0
  0
VERTEX
  5
804
  8
0
 10
208.37927426568919
 20
112.6452677854611
 30
0.0
  0
VERTEX
  5
805
  8
0
 10
208.38854159234279
 20
112.6569336968991
 30
0.0
  0
VERTEX
  5
806
  8
0
 10
208.3977467718272
 20
112.6686735930621
 30
0.0
  0
VERTEX
  5
807
  8
0
 10
208.40689572292081
 20
112.6804845145611
 30
0.0
  0
VERTEX
  5
808
  8
0
 10
208.41598696592879
 20
112.6923635020071
 30
0.0
  0
VERTEX
  5
809
  8
0
 10
208.42502346024031
 20
112.70430759601111
 30
0.0
  0
VERTEX
  5
80A
  8
0
 10
208.43400816524431
 20
112.7163123574896
 30
0.0
  0
VERTEX
  5
80B
  8
0
 10
208.4429425606352
 20
112.7283763067481
 30
0.0
  0
VERTEX
  5
80C
  8
0
 10
208.45182960580229
 20
112.7404964843976
 30
0.0
  0
VERTEX
  5
80D
  8
0
 10
208.46066930074531
 20
112.75266845135459
 30
0.0
  0
VERTEX
  5
80E
  8
0
 10
208.4694660845478
 20
112.76489072792459
 30
0.0
  0
VERTEX
  5
80F
  8
0
 10
208.4782199572098
 20
112.7771603547186
 30
0.0
  0
VERTEX
  5
810
  8
0
 10
208.4869338781202
 20
112.7894714129586
 30
0.0
  0
VERTEX
  5
811
  8
0
 10
208.49560932697381
 20
112.8018239026446
 30
0.0
  0
VERTEX
  5
812
  8
0
 10
208.50424926315929
 20
112.8142133846931
 30
0.0
  0
VERTEX
  5
813
  8
0
 10
208.51285516637131
 20
112.8266368997151
 30
0.0
  0
VERTEX
  5
814
  8
0
 10
208.5214299959988
 20
112.8390929680161
 30
0.0
  0
VERTEX
  5
815
  8
0
 10
208.5299752317363
 20
112.85157567081799
 30
0.0
  0
VERTEX
  5
816
  8
0
 10
208.53849087358381
 20
112.8640835284266
 30
0.0
  0
VERTEX
  5
817
  8
0
 10
208.5469828403192
 20
112.8766135814526
 30
0.0
  0
VERTEX
  5
818
  8
0
 10
208.55544965224831
 20
112.88916287050711
 30
0.0
  0
VERTEX
  5
819
  8
0
 10
208.56389574845431
 20
112.90172695650659
 30
0.0
  0
VERTEX
  5
81A
  8
0
 10
208.57232260863171
 20
112.9143043597566
 30
0.0
  0
VERTEX
  5
81B
  8
0
 10
208.58073171247531
 20
112.9268921208681
 30
0.0
  0
VERTEX
  5
81C
  8
0
 10
208.58912453967929
 20
112.93948580075759
 30
0.0
  0
VERTEX
  5
81D
  8
0
 10
208.59750552932721
 20
112.9520839197306
 30
0.0
  0
VERTEX
  5
81E
  8
0
 10
208.60587320172479
 20
112.9646820387036
 30
0.0
  0
VERTEX
  5
81F
  8
0
 10
208.6142334756498
 20
112.9772771982876
 30
0.0
  0
VERTEX
  5
820
  8
0
 10
208.6225848714077
 20
112.98986791878799
 30
0.0
  0
VERTEX
  5
821
  8
0
 10
208.6309318280822
 20
113.00244828142711
 30
0.0
  0
VERTEX
  5
822
  8
0
 10
208.6392758253678
 20
113.01501828620449
 30
0.0
  0
VERTEX
  5
823
  8
0
 10
208.64761834295879
 20
113.0275734940371
 30
0.0
  0
VERTEX
  5
824
  8
0
 10
208.65596234024429
 20
113.0401094658411
 30
0.0
  0
VERTEX
  5
825
  8
0
 10
208.6643092969187
 20
113.0526262016166
 30
0.0
  0
VERTEX
  5
826
  8
0
 10
208.6726606926768
 20
113.0651177825856
 30
0.0
  0
VERTEX
  5
827
  8
0
 10
208.6810194869073
 20
113.0775827290536
 30
0.0
  0
VERTEX
  5
828
  8
0
 10
208.68938715930469
 20
113.0900180816316
 30
0.0
  0
VERTEX
  5
829
  8
0
 10
208.69776666925819
 20
113.10241940123611
 30
0.0
  0
VERTEX
  5
82A
  8
0
 10
208.70615949646231
 20
113.11478520817261
 30
0.0
  0
VERTEX
  5
82B
  8
0
 10
208.7145656409167
 20
113.1271110633576
 30
0.0
  0
VERTEX
  5
82C
  8
0
 10
208.72299102139979
 20
113.1393940074021
 30
0.0
  0
VERTEX
  5
82D
  8
0
 10
208.73143563791129
 20
113.1516325606116
 30
0.0
  0
VERTEX
  5
82E
  8
0
 10
208.73990097014561
 20
113.1638222839026
 30
0.0
  0
VERTEX
  5
82F
  8
0
 10
208.74838997749231
 20
113.1759616975806
 30
0.0
  0
VERTEX
  5
830
  8
0
 10
208.75690561933979
 20
113.1880448828676
 30
0.0
  0
VERTEX
  5
831
  8
0
 10
208.76544789568831
 20
113.20007183976359
 30
0.0
  0
SEQEND
  5
832
  8
0
  0
POLYLINE
  5
833
  8
0
 66
     1
 10
0.0
 20
0.0
 30
0.0
  0
VERTEX
  5
834
  8
0
 10
208.76544641599381
 20
113.20007183976359
 30
0.0
  0
VERTEX
  5
835
  8
0
 10
208.76929362169369
 20
113.2053943008801
 30
0.0
  0
VERTEX
  5
836
  8
0
 10
208.77390434975581
 20
113.2116904009776
 30
0.0
  0
VERTEX
  5
837
  8
0
 10
208.77915874492521
 20
113.21886543960809
 30
0.0
  0
VERTEX
  5
838
  8
0
 10
208.7849428707257
 20
113.2268261960181
 30
0.0
  0
VERTEX
  5
839
  8
0
 10
208.79114131098629
 20
113.23548092914859
 30
0.0
  0
VERTEX
  5
83A
  8
0
 10
208.79763569014679
 20
113.2447349385516
 30
0.0
  0
VERTEX
  5
83B
  8
0
 10
208.8043105920363
 20
113.254496483168
 30
0.0
  0
VERTEX
  5
83C
  8
0
 10
208.8110506004837
 20
113.2646708625501
 30
0.0
  0
VERTEX
  5
83D
  8
0
 10
208.81773881962371
 20
113.27516781533311
 30
0.0
  0
VERTEX
  5
83E
  8
0
 10
208.82425983328531
 20
113.285892641069
 30
0.0
  0
VERTEX
  5
83F
  8
0
 10
208.8304952659083
 20
113.29675211900459
 30
0.0
  0
VERTEX
  5
840
  8
0
 10
208.83633118101619
 20
113.3076530283861
 30
0.0
  0
VERTEX
  5
841
  8
0
 10
208.84165216243829
 20
113.3185036281546
 30
0.0
  0
VERTEX
  5
842
  8
0
 10
208.84633835491971
 20
113.3292106975566
 30
0.0
  0
VERTEX
  5
843
  8
0
 10
208.85027730167869
 20
113.3396795361441
 30
0.0
  0
VERTEX
  5
844
  8
0
 10
208.85335062715529
 20
113.34981988255259
 30
0.0
  0
VERTEX
  5
845
  8
0
 10
208.85544291517829
 20
113.3595355566396
 30
0.0
  0
VERTEX
  5
846
  8
0
 10
208.8564387495768
 20
113.3687362970406
 30
0.0
  0
VERTEX
  5
847
  8
0
 10
208.85621975479069
 20
113.3773274033076
 30
0.0
  0
VERTEX
  5
848
  8
0
 10
208.85467199434379
 20
113.38521713438161
 30
0.0
  0
VERTEX
  5
849
  8
0
 10
208.85167709267569
 20
113.3923107898146
 30
0.0
  0
VERTEX
  5
84A
  8
0
 10
208.84712111331029
 20
113.3985181082421
 30
0.0
  0
VERTEX
  5
84B
  8
0
 10
208.8408871603817
 20
113.4037429095216
 30
0.0
  0
VERTEX
  5
84C
  8
0
 10
208.83285833802461
 20
113.4078934525941
 30
0.0
  0
VERTEX
  5
84D
  8
0
 10
208.82291923006829
 20
113.4108765167061
 30
0.0
  0
VERTEX
  5
84E
  8
0
 10
208.81095442034129
 20
113.41260036079861
 30
0.0
  0
VERTEX
  5
84F
  8
0
 10
208.79684553328369
 20
113.4129717641181
 30
0.0
  0
SEQEND
  5
850
  8
0
  0
POLYLINE
  5
851
  8
0
 66
     1
 10
0.0
 20
0.0
 30
0.0
  0
VERTEX
  5
852
  8
0
 10
211.96588099415331
 20
113.0939016878163
 30
0.0
  0
VERTEX
  5
853
  8
0
 10
211.9529510388918
 20
113.0909177358876
 30
0.0
  0
VERTEX
  5
854
  8
0
 10
211.9429453446827
 20
113.0860258658706
 30
0.0
  0
VERTEX
  5
855
  8
0
 10
211.93560901935169
 20
113.0794456644291
 30
0.0
  0
VERTEX
  5
856
  8
0
 10
211.93068903513921
 20
113.0713976060436
 30
0.0
  0
VERTEX
  5
857
  8
0
 10
211.92793236428571
 20
113.06210364488911
 30
0.0
  0
VERTEX
  5
858
  8
0
 10
211.92708301964279
 20
113.05178425544599
 30
0.0
  0
VERTEX
  5
859
  8
0
 10
211.92789093283969
 20
113.04065843250061
 30
0.0
  0
VERTEX
  5
85A
  8
0
 10
211.93009863703369
 20
113.02894960992209
 30
0.0
  0
VERTEX
  5
85B
  8
0
 10
211.93345754354871
 20
113.0168767824966
 30
0.0
  0
VERTEX
  5
85C
  8
0
 10
211.9377101855417
 20
113.0046619043991
 30
0.0
  0
VERTEX
  5
85D
  8
0
 10
211.94260353525331
 20
112.99252545011009
 30
0.0
  0
VERTEX
  5
85E
  8
0
 10
211.94788604461829
 20
112.98068937380459
 30
0.0
  0
VERTEX
  5
85F
  8
0
 10
211.95330320618271
 20
112.9693726702686
 30
0.0
  0
VERTEX
  5
860
  8
0
 10
211.95860051249281
 20
112.95879729367709
 30
0.0
  0
VERTEX
  5
861
  8
0
 10
211.9635264154831
 20
112.9491837185106
 30
0.0
  0
VERTEX
  5
862
  8
0
 10
211.96782492800571
 20
112.94075241924961
 30
0.0
  0
VERTEX
  5
863
  8
0
 10
211.9712459816898
 20
112.9337268297636
 30
0.0
  0
VERTEX
  5
864
  8
0
 10
211.97746513767331
 20
112.9199982241926
 30
0.0
  0
VERTEX
  5
865
  8
0
 10
211.98341942834119
 20
112.9062503825931
 30
0.0
  0
VERTEX
  5
866
  8
0
 10
211.98910737399919
 20
112.89248182527059
 30
0.0
  0
VERTEX
  5
867
  8
0
 10
211.9945289746473
 20
112.8786925522251
 30
0.0
  0
VERTEX
  5
868
  8
0
 10
211.99968423028531
 20
112.8648855228456
 30
0.0
  0
VERTEX
  5
869
  8
0
 10
212.00457462060771
 20
112.85106221682661
 30
0.0
  0
VERTEX
  5
86A
  8
0
 10
212.00920014561481
 20
112.8372211544736
 30
0.0
  0
VERTEX
  5
86B
  8
0
 10
212.01355932561179
 20
112.8233638154811
 30
0.0
  0
VERTEX
  5
86C
  8
0
 10
212.0176536402933
 20
112.8094916795436
 30
0.0
  0
VERTEX
  5
86D
  8
0
 10
212.02148456935379
 20
112.7956062263556
 30
0.0
  0
VERTEX
  5
86E
  8
0
 10
212.02505063309869
 20
112.7817074559171
 30
0.0
  0
VERTEX
  5
86F
  8
0
 10
212.0283518315282
 20
112.7677968479226
 30
0.0
  0
VERTEX
  5
870
  8
0
 10
212.0313896443368
 20
112.75387588206659
 30
0.0
  0
VERTEX
  5
871
  8
0
 10
212.0341640715242
 20
112.73994455834909
 30
0.0
  0
VERTEX
  5
872
  8
0
 10
212.03667363339611
 20
112.7260028767701
 30
0.0
  0
VERTEX
  5
873
  8
0
 10
212.03892128934169
 20
112.71205379671861
 30
0.0
  0
VERTEX
  5
874
  8
0
 10
212.0409055596661
 20
112.6980973181946
 30
0.0
  0
VERTEX
  5
875
  8
0
 10
212.04262644436969
 20
112.6841334411981
 30
0.0
  0
VERTEX
  5
876
  8
0
 10
212.04408542314681
 20
112.6701636454236
 30
0.0
  0
VERTEX
  5
877
  8
0
 10
212.04528101630279
 20
112.65619089026011
 30
0.0
  0
VERTEX
  5
878
  8
0
 10
212.0462161832267
 20
112.6422136960131
 30
0.0
  0
VERTEX
  5
879
  8
0
 10
212.04688796452979
 20
112.6282335423771
 30
0.0
  0
VERTEX
  5
87A
  8
0
 10
212.0472993196008
 20
112.6142504293521
 30
0.0
  0
VERTEX
  5
87B
  8
0
 10
212.0474487687452
 20
112.60026731632711
 30
0.0
  0
VERTEX
  5
87C
  8
0
 10
212.04733631196331
 20
112.5862842033021
 30
0.0
  0
VERTEX
  5
87D
  8
0
 10
212.0469634289492
 20
112.5723025699716
 30
0.0
  0
VERTEX
  5
87E
  8
0
 10
212.0463301197033
 20
112.5583209366411
 30
0.0
  0
VERTEX
  5
87F
  8
0
 10
212.0454363842253
 20
112.5443437423941
 30
0.0
  0
VERTEX
  5
880
  8
0
 10
212.04428222251531
 20
112.53036950753609
 30
0.0
  0
VERTEX
  5
881
  8
0
 10
212.04286911426769
 20
112.51639971176159
 30
0.0
  0
VERTEX
  5
882
  8
0
 10
212.04119410009369
 20
112.502435834765
 30
0.0
  0
VERTEX
  5
883
  8
0
 10
212.0392616190768
 20
112.4884778765466
 30
0.0
  0
VERTEX
  5
884
  8
0
 10
212.03706871182769
 20
112.4745273168006
 30
0.0
  0
VERTEX
  5
885
  8
0
 10
212.03461685804129
 20
112.46058563522161
 30
0.0
  0
VERTEX
  5
886
  8
0
 10
212.03190605771729
 20
112.4466513521151
 30
0.0
  0
VERTEX
  5
887
  8
0
 10
212.0289363108557
 20
112.43272890656461
 30
0.0
  0
VERTEX
  5
888
  8
0
 10
212.02570909715129
 20
112.4188168188756
 30
0.0
  0
VERTEX
  5
889
  8
0
 10
212.02222293690929
 20
112.40491656874261
 30
0.0
  0
VERTEX
  5
88A
  8
0
 10
212.0184793098241
 20
112.39102963585999
 30
0.0
  0
VERTEX
  5
88B
  8
0
 10
212.01447821589619
 20
112.3771560202281
 30
0.0
  0
VERTEX
  5
88C
  8
0
 10
212.01021817543079
 20
112.3632972015411
 30
0.0
  0
VERTEX
  5
88D
  8
0
 10
212.00570214781669
 20
112.3494546594936
 30
0.0
  0
VERTEX
  5
88E
  8
0
 10
212.00093013305431
 20
112.3356269143911
 30
0.0
  0
VERTEX
  5
88F
  8
0
 10
211.9958991717541
 20
112.3218184053171
 30
0.0
  0
VERTEX
  5
890
  8
0
 10
211.99061370300029
 20
112.3080276525771
 30
0.0
  0
VERTEX
  5
891
  8
0
 10
211.98507076740319
 20
112.2942561358656
 30
0.0
  0
VERTEX
  5
892
  8
0
 10
211.9792718446578
 20
112.28050533487711
 30
0.0
  0
VERTEX
  5
893
  8
0
 10
211.9732169347638
 20
112.2667752496116
 30
0.0
  0
VERTEX
  5
894
  8
0
 10
211.96690751741579
 20
112.25306735976361
 30
0.0
  0
VERTEX
  5
895
  8
0
 10
211.96061289701279
 20
112.2398655254346
 30
0.0
  0
VERTEX
  5
896
  8
0
 10
211.95417918532681
 20
112.2267421149141
 30
0.0
  0
VERTEX
  5
897
  8
0
 10
211.94760638235789
 20
112.2136956485076
 30
0.0
  0
VERTEX
  5
898
  8
0
 10
211.94089744749479
 20
112.2007261262151
 30
0.0
  0
VERTEX
  5
899
  8
0
 10
211.9340523807378
 20
112.18783354803659
 30
0.0
  0
VERTEX
  5
89A
  8
0
 10
211.9270756211701
 20
112.17501643427759
 30
0.0
  0
VERTEX
  5
89B
  8
0
 10
211.91996568909781
 20
112.1622762646325
 30
0.0
  0
VERTEX
  5
89C
  8
0
 10
211.91272702360371
 20
112.1496100797126
 30
0.0
  0
VERTEX
  5
89D
  8
0
 10
211.90536110438279
 20
112.13702083890659
 30
0.0
  0
VERTEX
  5
89E
  8
0
 10
211.8978679314348
 20
112.12450558282561
 30
0.0
  0
VERTEX
  5
89F
  8
0
 10
211.89025046414869
 20
112.1120657911641
 30
0.0
  0
VERTEX
  5
8A0
  8
0
 10
211.88251018221931
 20
112.0996999842276
 30
0.0
  0
VERTEX
  5
8A1
  8
0
 10
211.8746500450352
 20
112.0874081620161
 30
0.0
  0
VERTEX
  5
8A2
  8
0
 10
211.86667005259679
 20
112.0751903245296
 30
0.0
  0
VERTEX
  5
8A3
  8
0
 10
211.85857168459819
 20
112.0630464717681
 30
0.0
  0
VERTEX
  5
8A4
  8
0
 10
211.85035938012331
 20
112.050975124037
 30
0.0
  0
VERTEX
  5
8A5
  8
0
 10
211.8420316594773
 20
112.03897776103111
 30
0.0
  0
VERTEX
  5
8A6
  8
0
 10
211.8335929617437
 20
112.0270529030556
 30
0.0
  0
VERTEX
  5
8A7
  8
0
 10
211.82504328692269
 20
112.0151990704161
 30
0.0
  0
VERTEX
  5
8A8
  8
0
 10
211.8163841147088
 20
112.0034177428071
 30
0.0
  0
VERTEX
  5
8A9
  8
0
 10
211.8076198841853
 20
111.9917089202286
 30
0.0
  0
VERTEX
  5
8AA
  8
0
 10
211.7987491156577
 20
111.9800711229861
 30
0.0
  0
VERTEX
  5
8AB
  8
0
 10
211.78977624820979
 20
111.96850583077411
 30
0.0
  0
VERTEX
  5
8AC
  8
0
 10
211.7807012818412
 20
111.9570100842036
 30
0.0
  0
VERTEX
  5
8AD
  8
0
 10
211.77152569624681
 20
111.9455853629691
 30
0.0
  0
VERTEX
  5
8AE
  8
0
 10
211.7622524508152
 20
111.9342301873761
 30
0.0
  0
VERTEX
  5
8AF
  8
0
 10
211.75288450493579
 20
111.9229460371191
 30
0.0
  0
VERTEX
  5
8B0
  8
0
 10
211.7434203789137
 20
111.9117299528091
 30
0.0
  0
VERTEX
  5
8B1
  8
0
 10
211.73386303213829
 20
111.9005848938351
 30
0.0
  0
VERTEX
  5
8B2
  8
0
 10
211.72421542399829
 20
111.8895079008081
 30
0.0
  0
VERTEX
  5
8B3
  8
0
 10
211.71447903418829
 20
111.8785004534226
 30
0.0
  0
VERTEX
  5
8B4
  8
0
 10
211.70465386270831
 20
111.8675625516786
 30
0.0
  0
VERTEX
  5
8B5
  8
0
 10
211.69474434864171
 20
111.8566912361871
 30
0.0
  0
VERTEX
  5
8B6
  8
0
 10
211.68475049198881
 20
111.84588798664259
 30
0.0
  0
VERTEX
  5
8B7
  8
0
 10
211.6746737724437
 20
111.8351528030451
 30
0.0
  0
VERTEX
  5
8B8
  8
0
 10
211.66451714939561
 20
111.8244842057001
 30
0.0
  0
VERTEX
  5
8B9
  8
0
 10
211.6542821025393
 20
111.8138836743021
 30
0.0
  0
VERTEX
  5
8BA
  8
0
 10
211.6439686318742
 20
111.80334972915659
 30
0.0
  0
VERTEX
  5
8BB
  8
0
 10
211.63358117648431
 20
111.7928823702636
 30
0.0
  0
VERTEX
  5
8BC
  8
0
 10
211.6231197363692
 20
111.7824801179286
 30
0.0
  0
VERTEX
  5
8BD
  8
0
 10
211.6125872709182
 20
111.7721444518461
 30
0.0
  0
VERTEX
  5
8BE
  8
0
 10
211.60198378013129
 20
111.7618738923216
 30
0.0
  0
VERTEX
  5
8BF
  8
0
 10
211.5913137030918
 20
111.7516699190496
 30
0.0
  0
VERTEX
  5
8C0
  8
0
 10
211.5805755601051
 20
111.7415295726411
 30
0.0
  0
VERTEX
  5
8C1
  8
0
 10
211.56977379025531
 20
111.73145433279061
 30
0.0
  0
VERTEX
  5
8C2
  8
0
 10
211.5589083935418
 20
111.72144419949799
 30
0.0
  0
VERTEX
  5
8C3
  8
0
 10
211.54798380904819
 20
111.71149769306911
 30
0.0
  0
VERTEX
  5
8C4
  8
0
 10
211.53699707738579
 20
111.70161333380911
 30
0.0
  0
VERTEX
  5
8C5
  8
0
 10
211.5259541173323
 20
111.6917940811071
 30
0.0
  0
VERTEX
  5
8C6
  8
0
 10
211.5148564085822
 20
111.6820384552686
 30
0.0
  0
VERTEX
  5
8C7
  8
0
 10
211.50370247144119
 20
111.67234497659911
 30
0.0
  0
VERTEX
  5
8C8
  8
0
 10
211.49249822468721
 20
111.66271364509861
 30
0.0
  0
VERTEX
  5
8C9
  8
0
 10
211.4812421886258
 20
111.6531459404616
 30
0.0
  0
VERTEX
  5
8CA
  8
0
 10
211.46993732264579
 20
111.64363890329911
 30
0.0
  0
VERTEX
  5
8CB
  8
0
 10
211.45858510644169
 20
111.6341940133056
 30
0.0
  0
VERTEX
  5
8CC
  8
0
 10
211.4471884994027
 20
111.6248112704811
 30
0.0
  0
VERTEX
  5
8CD
  8
0
 10
211.43574750152879
 20
111.6154891951311
 30
0.0
  0
VERTEX
  5
8CE
  8
0
 10
211.42426507220881
 20
111.60622778725561
 30
0.0
  0
VERTEX
  5
8CF
  8
0
 10
211.41274269113731
 20
111.59702704685461
 30
0.0
  0
VERTEX
  5
8D0
  8
0
 10
211.4011818380088
 20
111.5878854942336
 30
0.0
  0
VERTEX
  5
8D1
  8
0
 10
211.3895854722123
 20
111.5788046090871
 30
0.0
  0
VERTEX
  5
8D2
  8
0
 10
211.3779535937478
 20
111.5697843914151
 30
0.0
  0
VERTEX
  5
8D3
  8
0
 10
211.36628768230969
 20
111.5608218818286
 30
0.0
  0
VERTEX
  5
8D4
  8
0
 10
211.35459217698181
 20
111.55192003971661
 30
0.0
  0
VERTEX
  5
8D5
  8
0
 10
211.34286707776371
 20
111.5430759056901
 30
0.0
  0
VERTEX
  5
8D6
  8
0
 10
211.3311138643501
 20
111.5342909594436
 30
0.0
  0
VERTEX
  5
8D7
  8
0
 10
211.3193340164357
 20
111.52556372128259
 30
0.0
  0
VERTEX
  5
8D8
  8
0
 10
211.30753049340919
 20
111.5168941912071
 30
0.0
  0
VERTEX
  5
8D9
  8
0
 10
211.2957047749652
 20
111.5082823692171
 30
0.0
  0
VERTEX
  5
8DA
  8
0
 10
211.2838583407981
 20
111.4997267756181
 30
0.0
  0
VERTEX
  5
8DB
  8
0
 10
211.27199267060271
 20
111.4912303697991
 30
0.0
  0
VERTEX
  5
8DC
  8
0
 10
211.26010924407331
 20
111.48278871267659
 30
0.0
  0
VERTEX
  5
8DD
  8
0
 10
211.24821102059869
 20
111.4744047636396
 30
0.0
  0
VERTEX
  5
8DE
  8
0
 10
211.23629947987371
 20
111.4660755632991
 30
0.0
  0
VERTEX
  5
8DF
  8
0
 10
211.2243761015927
 20
111.45780407104409
 30
0.0
  0
VERTEX
  5
8E0
  8
0
 10
211.21244236545019
 20
111.4495858477911
 30
0.0
  0
VERTEX
  5
8E1
  8
0
 10
211.20050123083519
 20
111.44142385292911
 30
0.0
  0
VERTEX
  5
8E2
  8
0
 10
211.18855121805331
 20
111.4333180864581
 30
0.0
  0
VERTEX
  5
8E3
  8
0
 10
211.1765982458821
 20
111.42526558898911
 30
0.0
  0
VERTEX
  5
8E4
  8
0
 10
211.16464231432229
 20
111.4172678402166
 30
0.0
  0
VERTEX
  5
8E5
  8
0
 10
211.1519864872638
 20
111.4088794520961
 30
0.0
  0
VERTEX
  5
8E6
  8
0
 10
211.13929958662081
 20
111.4005665283951
 30
0.0
  0
VERTEX
  5
8E7
  8
0
 10
211.12657865300429
 20
111.3923275894191
 30
0.0
  0
VERTEX
  5
8E8
  8
0
 10
211.11382664580319
 20
111.3841626351681
 30
0.0
  0
VERTEX
  5
8E9
  8
0
 10
211.1010406056287
 20
111.3760672265586
 30
0.0
  0
VERTEX
  5
8EA
  8
0
 10
211.0882205324807
 20
111.3680443229796
 30
0.0
  0
VERTEX
  5
8EB
  8
0
 10
211.0753664263593
 20
111.3600909650421
 30
0.0
  0
VERTEX
  5
8EC
  8
0
 10
211.06247976695869
 20
111.3522071527461
 30
0.0
  0
VERTEX
  5
8ED
  8
0
 10
211.0495575948903
 20
111.3443899267026
 30
0.0
  0
VERTEX
  5
8EE
  8
0
 10
211.0365999101538
 20
111.33663928691161
 30
0.0
  0
VERTEX
  5
8EF
  8
0
 10
211.0236081924437
 20
111.32895523337299
 30
0.0
  0
VERTEX
  5
8F0
  8
0
 10
211.01058096206569
 20
111.32133628639259
 30
0.0
  0
VERTEX
  5
8F1
  8
0
 10
210.9975182190197
 20
111.31378244597011
 30
0.0
  0
VERTEX
  5
8F2
  8
0
 10
210.9844199633057
 20
111.3062892730221
 30
0.0
  0
VERTEX
  5
8F3
  8
0
 10
210.97128471522919
 20
111.29885972693759
 30
0.0
  0
VERTEX
  5
8F4
  8
0
 10
210.95811247479031
 20
111.2914908483276
 30
0.0
  0
VERTEX
  5
8F5
  8
0
 10
210.94490324198881
 20
111.2841811574976
 30
0.0
  0
VERTEX
  5
8F6
  8
0
 10
210.93165849651919
 20
111.2769306544476
 30
0.0
  0
VERTEX
  5
8F7
  8
0
 10
210.91837379929819
 20
111.2697393391776
 30
0.0
  0
VERTEX
  5
8F8
  8
0
 10
210.90505210971469
 20
111.2626027726041
 30
0.0
  0
VERTEX
  5
8F9
  8
0
 10
210.8916934277687
 20
111.2555239141161
 30
0.0
  0
VERTEX
  5
8FA
  8
0
 10
210.87829479407131
 20
111.2484998043246
 30
0.0
  0
VERTEX
  5
8FB
  8
0
 10
210.8648576883167
 20
111.24153044322961
 30
0.0
  0
VERTEX
  5
8FC
  8
0
 10
210.85138211050531
 20
111.2346128714421
 30
0.0
  0
VERTEX
  5
8FD
  8
0
 10
210.83786658094229
 20
111.2277470889621
 30
0.0
  0
VERTEX
  5
8FE
  8
0
 10
210.8243125793222
 20
111.22093457548399
 30
0.0
  0
VERTEX
  5
8FF
  8
0
 10
210.81171889943269
 20
111.2148249168936
 30
0.0
  0
VERTEX
  5
900
  8
0
 10
210.7987449380567
 20
111.20877296638859
 30
0.0
  0
VERTEX
  5
901
  8
0
 10
210.78555938036729
 20
111.20265886871459
 30
0.0
  0
VERTEX
  5
902
  8
0
 10
210.77232499275911
 20
111.1963642483116
 30
0.0
  0
VERTEX
  5
903
  8
0
 10
210.7592104604058
 20
111.1897722093141
 30
0.0
  0
VERTEX
  5
904
  8
0
 10
210.74638002939631
 20
111.18276289646759
 30
0.0
  0
VERTEX
  5
905
  8
0
 10
210.73400238490379
 20
111.17522089360109
 30
0.0
  0
VERTEX
  5
906
  8
0
 10
210.72224177301771
 20
111.1670263454601
 30
0.0
  0
VERTEX
  5
907
  8
0
 10
210.7112653992167
 20
111.1580623561791
 30
0.0
  0
VERTEX
  5
908
  8
0
 10
210.70123898928469
 20
111.1482105501981
 30
0.0
  0
VERTEX
  5
909
  8
0
 10
210.6923282690058
 20
111.13735255195709
 30
0.0
  0
VERTEX
  5
90A
  8
0
 10
210.68470044385811
 20
111.1253714655906
 30
0.0
  0
VERTEX
  5
90B
  8
0
 10
210.6785227193208
 20
111.1121489155386
 30
0.0
  0
VERTEX
  5
90C
  8
0
 10
210.67353170977211
 20
111.09897075632161
 30
0.0
  0
VERTEX
  5
90D
  8
0
 10
210.66874637775919
 20
111.0856431479601
 30
0.0
  0
VERTEX
  5
90E
  8
0
 10
210.6641578451148
 20
111.07217348892659
 30
0.0
  0
VERTEX
  5
90F
  8
0
 10
210.6597572336718
 20
111.0585676979991
 30
0.0
  0
VERTEX
  5
910
  8
0
 10
210.6555401043467
 20
111.0448331736501
 30
0.0
  0
VERTEX
  5
911
  8
0
 10
210.6514946195837
 20
111.0309758346576
 30
0.0
  0
VERTEX
  5
912
  8
0
 10
210.6476178199938
 20
111.0170030794941
 30
0.0
  0
VERTEX
  5
913
  8
0
 10
210.64389934771529
 20
111.0029223066321
 30
0.0
  0
VERTEX
  5
914
  8
0
 10
210.6403318042758
 20
110.9887379551551
 30
0.0
  0
VERTEX
  5
915
  8
0
 10
210.6369077912027
 20
110.9744603829246
 30
0.0
  0
VERTEX
  5
916
  8
0
 10
210.6336199100237
 20
110.96009402902411
 30
0.0
  0
VERTEX
  5
917
  8
0
 10
210.6304622419608
 20
110.9456462919261
 30
0.0
  0
VERTEX
  5
918
  8
0
 10
210.6274244291522
 20
110.93112457010309
 30
0.0
  0
VERTEX
  5
919
  8
0
 10
210.62450055282031
 20
110.9165333026385
 30
0.0
  0
VERTEX
  5
91A
  8
0
 10
210.62168321449229
 20
110.90188284739411
 30
0.0
  0
VERTEX
  5
91B
  8
0
 10
210.61896501569581
 20
110.8871776434531
 30
0.0
  0
VERTEX
  5
91C
  8
0
 10
210.61633559856921
 20
110.8724250892881
 30
0.0
  0
VERTEX
  5
91D
  8
0
 10
210.61379200372369
 20
110.85763110367709
 30
0.0
  0
VERTEX
  5
91E
  8
0
 10
210.61132239360319
 20
110.8428045647871
 30
0.0
  0
VERTEX
  5
91F
  8
0
 10
210.60892232912431
 20
110.82794991170159
 30
0.0
  0
VERTEX
  5
920
  8
0
 10
210.60658293211981
 20
110.81307602258759
 30
0.0
  0
VERTEX
  5
921
  8
0
 10
210.60429680411721
 20
110.7981873365286
 30
0.0
  0
VERTEX
  5
922
  8
0
 10
210.60205506694979
 20
110.7832927316916
 30
0.0
  0
VERTEX
  5
923
  8
0
 10
210.5998532815338
 20
110.7683996065491
 30
0.0
  0
VERTEX
  5
924
  8
0
 10
210.5976810900078
 20
110.7535124001846
 30
0.0
  0
VERTEX
  5
925
  8
0
 10
210.5955310938993
 20
110.7386385110706
 30
0.0
  0
VERTEX
  5
926
  8
0
 10
210.5933973744302
 20
110.7237853376796
 30
0.0
  0
VERTEX
  5
927
  8
0
 10
210.59127253312829
 20
110.7089602784841
 30
0.0
  0
VERTEX
  5
928
  8
0
 10
210.5891476918263
 20
110.6941692522621
 30
0.0
  0
VERTEX
  5
929
  8
0
 10
210.58701397235731
 20
110.67941965748609
 30
0.0
  0
VERTEX
  5
92A
  8
0
 10
210.58486693563771
 20
110.6647174129341
 30
0.0
  0
VERTEX
  5
92B
  8
0
 10
210.58269770350071
 20
110.6500699170786
 30
0.0
  0
VERTEX
  5
92C
  8
0
 10
210.58049887747379
 20
110.6354830886976
 30
0.0
  0
VERTEX
  5
92D
  8
0
 10
210.57826157938979
 20
110.62096580595809
 30
0.0
  0
VERTEX
  5
92E
  8
0
 10
210.57597989047079
 20
110.6065239876381
 30
0.0
  0
VERTEX
  5
92F
  8
0
 10
210.57364641224419
 20
110.5921620728211
 30
0.0
  0
VERTEX
  5
930
  8
0
 10
210.5712522665433
 20
110.5778904193686
 30
0.0
  0
VERTEX
  5
931
  8
0
 10
210.56879005489529
 20
110.56371346636411
 30
0.0
  0
VERTEX
  5
932
  8
0
 10
210.56625237882781
 20
110.54963861228011
 30
0.0
  0
VERTEX
  5
933
  8
0
 10
210.5636333195628
 20
110.5356732555891
 30
0.0
  0
VERTEX
  5
934
  8
0
 10
210.5609239989333
 20
110.5218247947636
 30
0.0
  0
VERTEX
  5
935
  8
0
 10
210.55884650785529
 20
110.51239914079861
 30
0.0
  0
VERTEX
  5
936
  8
0
 10
210.55623780645169
 20
110.5017630967326
 30
0.0
  0
VERTEX
  5
937
  8
0
 10
210.5532754580627
 20
110.4901179010176
 30
0.0
  0
VERTEX
  5
938
  8
0
 10
210.55013998541719
 20
110.47766775149459
 30
0.0
  0
VERTEX
  5
939
  8
0
 10
210.5470133909387
 20
110.4646168460046
 30
0.0
  0
VERTEX
  5
93A
  8
0
 10
210.5440761973563
 20
110.4511693823886
 30
0.0
  0
VERTEX
  5
93B
  8
0
 10
210.5415074477043
 20
110.4375295584876
 30
0.0
  0
VERTEX
  5
93C
  8
0
 10
210.53948766471169
 20
110.4238986127536
 30
0.0
  0
VERTEX
  5
93D
  8
0
 10
210.53819737110771
 20
110.4104837024166
 30
0.0
  0
VERTEX
  5
93E
  8
0
 10
210.53781560992681
 20
110.39748754562309
 30
0.0
  0
VERTEX
  5
93F
  8
0
 10
210.53852586328679
 20
110.3851128605196
 30
0.0
  0
VERTEX
  5
940
  8
0
 10
210.54050717422231
 20
110.3735638449471
 30
0.0
  0
VERTEX
  5
941
  8
0
 10
210.54394006546229
 20
110.3630446967466
 30
0.0
  0
VERTEX
  5
942
  8
0
 10
210.54900358004119
 20
110.3537610934536
 30
0.0
  0
VERTEX
  5
943
  8
0
 10
210.55587824068829
 20
110.34591427351999
 30
0.0
  0
VERTEX
  5
944
  8
0
 10
210.56474604982679
 20
110.3397084347871
 30
0.0
  0
VERTEX
  5
945
  8
0
 10
210.57578753018569
 20
110.3353477750956
 30
0.0
  0
VERTEX
  5
946
  8
0
 10
210.58918172479969
 20
110.3330379719811
 30
0.0
  0
VERTEX
  5
947
  8
0
 10
210.60089646615631
 20
110.3323647109836
 30
0.0
  0
VERTEX
  5
948
  8
0
 10
210.61289234946781
 20
110.33225817297961
 30
0.0
  0
VERTEX
  5
949
  8
0
 10
210.6251530980947
 20
110.3327020813296
 30
0.0
  0
VERTEX
  5
94A
  8
0
 10
210.63766391509211
 20
110.33367424061611
 30
0.0
  0
VERTEX
  5
94B
  8
0
 10
210.65041148320981
 20
110.3351568945051
 30
0.0
  0
VERTEX
  5
94C
  8
0
 10
210.66337952580781
 20
110.3371308069681
 30
0.0
  0
VERTEX
  5
94D
  8
0
 10
210.67655324594119
 20
110.3395767419766
 30
0.0
  0
VERTEX
  5
94E
  8
0
 10
210.68991932635959
 20
110.3424754635021
 30
0.0
  0
VERTEX
  5
94F
  8
0
 10
210.70346149042371
 20
110.3458062558216
 30
0.0
  0
VERTEX
  5
950
  8
0
 10
210.71716494118829
 20
110.34955284229559
 30
0.0
  0
VERTEX
  5
951
  8
0
 10
210.73101636140279
 20
110.3536959868956
 30
0.0
  0
VERTEX
  5
952
  8
0
 10
210.74500095412219
 20
110.35821349420399
 30
0.0
  0
VERTEX
  5
953
  8
0
 10
210.75910392240181
 20
110.3630876078871
 30
0.0
  0
VERTEX
  5
954
  8
0
 10
210.77330898960179
 20
110.3683005716106
 30
0.0
  0
VERTEX
  5
955
  8
0
 10
210.78760283847171
 20
110.3738331493461
 30
0.0
  0
VERTEX
  5
956
  8
0
 10
210.80197067206669
 20
110.3796631456761
 30
0.0
  0
VERTEX
  5
957
  8
0
 10
210.81639621374731
 20
110.3857742839611
 30
0.0
  0
VERTEX
  5
958
  8
0
 10
210.8308676259573
 20
110.3921473281726
 30
0.0
  0
VERTEX
  5
959
  8
0
 10
210.8453671523628
 20
110.39876156258759
 30
0.0
  0
VERTEX
  5
95A
  8
0
 10
210.85988295540781
 20
110.4055992308721
 30
0.0
  0
VERTEX
  5
95B
  8
0
 10
210.87439727875821
 20
110.4126396173031
 30
0.0
  0
VERTEX
  5
95C
  8
0
 10
210.8888982848581
 20
110.41986496554659
 30
0.0
  0
VERTEX
  5
95D
  8
0
 10
210.90336969706831
 20
110.4272560395741
 30
0.0
  0
VERTEX
  5
95E
  8
0
 10
210.91779671844321
 20
110.43479360335709
 30
0.0
  0
VERTEX
  5
95F
  8
0
 10
210.93216455203819
 20
110.44245694117259
 30
0.0
  0
VERTEX
  5
960
  8
0
 10
210.9464598806027
 20
110.45022977638109
 30
0.0
  0
VERTEX
  5
961
  8
0
 10
210.9606664274973
 20
110.4580899135651
 30
0.0
  0
VERTEX
  5
962
  8
0
 10
210.97476939577669
 20
110.4660210760851
 30
0.0
  0
VERTEX
  5
963
  8
0
 10
210.98875546819079
 20
110.47400106852361
 30
0.0
  0
VERTEX
  5
964
  8
0
 10
211.0026083680998
 20
110.4820136142411
 30
0.0
  0
VERTEX
  5
965
  8
0
 10
211.01631477825319
 20
110.49003799751461
 30
0.0
  0
VERTEX
  5
966
  8
0
 10
211.02985990170629
 20
110.49805498231559
 30
0.0
  0
VERTEX
  5
967
  8
0
 10
211.04322746181921
 20
110.5060453326156
 30
0.0
  0
VERTEX
  5
968
  8
0
 10
211.0564026616473
 20
110.5139912920806
 30
0.0
  0
VERTEX
  5
969
  8
0
 10
211.0693736636342
 20
110.5218721449876
 30
0.0
  0
VERTEX
  5
96A
  8
0
 10
211.08212271144629
 20
110.5296686553081
 30
0.0
  0
VERTEX
  5
96B
  8
0
 10
211.09463648783279
 20
110.5373630667081
 30
0.0
  0
VERTEX
  5
96C
  8
0
 10
211.10690019584879
 20
110.54493614315911
 30
0.0
  0
VERTEX
  5
96D
  8
0
 10
211.1188990385493
 20
110.5523671689381
 30
0.0
  0
VERTEX
  5
96E
  8
0
 10
211.1306182189893
 20
110.5596383877111
 30
0.0
  0
VERTEX
  5
96F
  8
0
 10
211.1420429402238
 20
110.56672908375511
 30
0.0
  0
VERTEX
  5
970
  8
0
 10
211.15315840530781
 20
110.5736215007361
 30
0.0
  0
VERTEX
  5
971
  8
0
 10
211.1639512969908
 20
110.58029640262561
 30
0.0
  0
VERTEX
  5
972
  8
0
 10
211.17440385893869
 20
110.5867345533951
 30
0.0
  0
VERTEX
  5
973
  8
0
 10
211.1845042535958
 20
110.592916717016
 30
0.0
  0
VERTEX
  5
974
  8
0
 10
211.19423620432221
 20
110.5988236574601
 30
0.0
  0
VERTEX
  5
975
  8
0
 10
211.2056550067789
 20
110.6057367901641
 30
0.0
  0
VERTEX
  5
976
  8
0
 10
211.2171019234307
 20
110.6127061512591
 30
0.0
  0
VERTEX
  5
977
  8
0
 10
211.22857547458369
 20
110.6197287813561
 30
0.0
  0
VERTEX
  5
978
  8
0
 10
211.24007566023781
 20
110.6268076398441
 30
0.0
  0
VERTEX
  5
979
  8
0
 10
211.25159952100381
 20
110.6339412470286
 30
0.0
  0
VERTEX
  5
97A
  8
0
 10
211.26314557718729
 20
110.6411296029096
 30
0.0
  0
VERTEX
  5
97B
  8
0
 10
211.27471382878829
 20
110.64837122779259
 30
0.0
  0
VERTEX
  5
97C
  8
0
 10
211.28630131641771
 20
110.65566908106661
 30
0.0
  0
VERTEX
  5
97D
  8
0
 10
211.29790951977029
 20
110.6630202033426
 30
0.0
  0
VERTEX
  5
97E
  8
0
 10
211.30953399976229
 20
110.67042755400961
 30
0.0
  0
VERTEX
  5
97F
  8
0
 10
211.3211747563937
 20
110.67788669398411
 30
0.0
  0
VERTEX
  5
980
  8
0
 10
211.33283030997029
 20
110.6854020623496
 30
0.0
  0
VERTEX
  5
981
  8
0
 10
211.34449918079719
 20
110.69297069971709
 30
0.0
  0
VERTEX
  5
982
  8
0
 10
211.35617988918031
 20
110.70059408578111
 30
0.0
  0
VERTEX
  5
983
  8
0
 10
211.36787243511921
 20
110.7082722205416
 30
0.0
  0
VERTEX
  5
984
  8
0
 10
211.3795723795308
 20
110.71600362430399
 30
0.0
  0
VERTEX
  5
985
  8
0
 10
211.3912826818038
 20
110.72378829706859
 30
0.0
  0
VERTEX
  5
986
  8
0
 10
211.40299742316009
 20
110.73162771852959
 30
0.0
  0
VERTEX
  5
987
  8
0
 10
211.41471956298929
 20
110.73952188868699
 30
0.0
  0
VERTEX
  5
988
  8
0
 10
211.4264446622073
 20
110.7474678481521
 30
0.0
  0
VERTEX
  5
989
  8
0
 10
211.43817272081429
 20
110.75547003600811
 30
0.0
  0
VERTEX
  5
98A
  8
0
 10
211.44990225911579
 20
110.7635240131716
 30
0.0
  0
VERTEX
  5
98B
  8
0
 10
211.46163031772281
 20
110.7716327390316
 30
0.0
  0
VERTEX
  5
98C
  8
0
 10
211.4733583763298
 20
110.77979325419911
 30
0.0
  0
VERTEX
  5
98D
  8
0
 10
211.4850834755479
 20
110.7880099977576
 30
0.0
  0
VERTEX
  5
98E
  8
0
 10
211.49680413568231
 20
110.7962785306236
 30
0.0
  0
VERTEX
  5
98F
  8
0
 10
211.5085203567331
 20
110.8046003324916
 30
0.0
  0
VERTEX
  5
990
  8
0
 10
211.5202291793118
 20
110.81297540336161
 30
0.0
  0
VERTEX
  5
991
  8
0
 10
211.53192912372319
 20
110.82140522292811
 30
0.0
  0
VERTEX
  5
992
  8
0
 10
211.54362018996781
 20
110.8298868318021
 30
0.0
  0
VERTEX
  5
993
  8
0
 10
211.55530089835071
 20
110.8384217096781
 30
0.0
  0
VERTEX
  5
994
  8
0
 10
211.5669697691778
 20
110.8470098565561
 30
0.0
  0
VERTEX
  5
995
  8
0
 10
211.57862384305969
 20
110.85565127243611
 30
0.0
  0
VERTEX
  5
996
  8
0
 10
211.5902645996913
 20
110.86434595731809
 30
0.0
  0
VERTEX
  5
997
  8
0
 10
211.60188759998869
 20
110.8730924315076
 30
0.0
  0
VERTEX
  5
998
  8
0
 10
211.61349432364679
 20
110.8818921746991
 30
0.0
  0
VERTEX
  5
999
  8
0
 10
211.62508181127629
 20
110.8907451868926
 30
0.0
  0
VERTEX
  5
99A
  8
0
 10
211.63664858318279
 20
110.89964998839361
 30
0.0
  0
VERTEX
  5
99B
  8
0
 10
211.6481946393663
 20
110.90860953859099
 30
0.0
  0
VERTEX
  5
99C
  8
0
 10
211.6597170204378
 20
110.9176193984016
 30
0.0
  0
VERTEX
  5
99D
  8
0
 10
211.67121424670279
 20
110.9266825272141
 30
0.0
  0
VERTEX
  5
99E
  8
0
 10
211.68268779785569
 20
110.93579892502861
 30
0.0
  0
VERTEX
  5
99F
  8
0
 10
211.69413323481331
 20
110.94496711215059
 30
0.0
  0
VERTEX
  5
9A0
  8
0
 10
211.70555055757521
 20
110.9541870885801
 30
0.0
  0
VERTEX
  5
9A1
  8
0
 10
211.71693828644729
 20
110.9634603340116
 30
0.0
  0
VERTEX
  5
9A2
  8
0
 10
211.72829494173479
 20
110.97278536875061
 30
0.0
  0
VERTEX
  5
9A3
  8
0
 10
211.73961904374329
 20
110.98216219279711
 30
0.0
  0
VERTEX
  5
9A4
  8
0
 10
211.75090911277829
 20
110.9915922858456
 30
0.0
  0
VERTEX
  5
9A5
  8
0
 10
211.76216514883981
 20
111.00107268850699
 30
0.0
  0
VERTEX
  5
9A6
  8
0
 10
211.77338419253871
 20
111.0106063601706
 30
0.0
  0
VERTEX
  5
9A7
  8
0
 10
211.7845662438753
 20
111.02019182114159
 30
0.0
  0
VERTEX
  5
9A8
  8
0
 10
211.79570834346029
 20
111.0298290714201
 30
0.0
  0
VERTEX
  5
9A9
  8
0
 10
211.8068104912937
 20
111.0395181110061
 30
0.0
  0
VERTEX
  5
9AA
  8
0
 10
211.81787120768121
 20
111.0492589398996
 30
0.0
  0
VERTEX
  5
9AB
  8
0
 10
211.8288875332338
 20
111.0590500784061
 30
0.0
  0
VERTEX
  5
9AC
  8
0
 10
211.83985946795119
 20
111.0688944859146
 30
0.0
  0
VERTEX
  5
9AD
  8
0
 10
211.85078701183369
 20
111.0787906827306
 30
0.0
  0
VERTEX
  5
9AE
  8
0
 10
211.86166572579779
 20
111.0887371891596
 30
0.0
  0
VERTEX
  5
9AF
  8
0
 10
211.8724970895378
 20
111.0987354848961
 30
0.0
  0
VERTEX
  5
9B0
  8
0
 10
211.88327814366471
 20
111.1087855699401
 30
0.0
  0
VERTEX
  5
9B1
  8
0
 10
211.89400888817869
 20
111.1188859645971
 30
0.0
  0
VERTEX
  5
9B2
  8
0
 10
211.90468636369079
 20
111.129039628256
 30
0.0
  0
VERTEX
  5
9B3
  8
0
 10
211.9153090905063
 20
111.1392421218336
 30
0.0
  0
VERTEX
  5
9B4
  8
0
 10
211.9258785483197
 20
111.14949788441299
 30
0.0
  0
VERTEX
  5
9B5
  8
0
 10
211.93639029804771
 20
111.1598024769111
 30
0.0
  0
VERTEX
  5
9B6
  8
0
 10
211.9468428599958
 20
111.17016033841099
 30
0.0
  0
VERTEX
  5
9B7
  8
0
 10
211.95723771385829
 20
111.1805670298296
 30
0.0
  0
VERTEX
  5
9B8
  8
0
 10
211.96757190024621
 20
111.1910255105556
 30
0.0
  0
VERTEX
  5
9B9
  8
0
 10
211.97784393946529
 20
111.2015357805891
 30
0.0
  0
VERTEX
  5
9BA
  8
0
 10
211.98805235182081
 20
111.2120948805411
 30
0.0
  0
VERTEX
  5
9BB
  8
0
 10
211.9981956576182
 20
111.2227057698006
 30
0.0
  0
VERTEX
  5
9BC
  8
0
 10
212.00827385685761
 20
111.2333684483676
 30
0.0
  0
VERTEX
  5
9BD
  8
0
 10
212.01828399015011
 20
111.2440799568531
 30
0.0
  0
VERTEX
  5
9BE
  8
0
 10
212.0282260574958
 20
111.2548432546461
 30
0.0
  0
VERTEX
  5
9BF
  8
0
 10
212.03809709950531
 20
111.26565538235759
 30
0.0
  0
VERTEX
  5
9C0
  8
0
 10
212.04789859587331
 20
111.2765192993766
 30
0.0
  0
VERTEX
  5
9C1
  8
0
 10
212.05762610751631
 20
111.2874335260086
 30
0.0
  0
VERTEX
  5
9C2
  8
0
 10
212.0672796344341
 20
111.29839658255911
 30
0.0
  0
VERTEX
  5
9C3
  8
0
 10
212.07685769693279
 20
111.30941142841711
 30
0.0
  0
VERTEX
  5
9C4
  8
0
 10
212.08635881531731
 20
111.3204751041936
 30
0.0
  0
VERTEX
  5
9C5
  8
0
 10
212.09578150989319
 20
111.33159056927759
 30
0.0
  0
VERTEX
  5
9C6
  8
0
 10
212.10512430096631
 20
111.3427548642801
 30
0.0
  0
VERTEX
  5
9C7
  8
0
 10
212.11438718853631
 20
111.3539694688956
 30
0.0
  0
VERTEX
  5
9C8
  8
0
 10
212.12356869290861
 20
111.3652329034296
 30
0.0
  0
VERTEX
  5
9C9
  8
0
 10
212.13266585469469
 20
111.37654812727111
 30
0.0
  0
VERTEX
  5
9CA
  8
0
 10
212.1416771941997
 20
111.38791070133659
 30
0.0
  0
VERTEX
  5
9CB
  8
0
 10
212.1506027114238
 20
111.3993250647096
 30
0.0
  0
VERTEX
  5
9CC
  8
0
 10
212.15944240636679
 20
111.41078825800111
 30
0.0
  0
VERTEX
  5
9CD
  8
0
 10
212.16819183994531
 20
111.4223017609056
 30
0.0
  0
VERTEX
  5
9CE
  8
0
 10
212.17685101215929
 20
111.4338640937286
 30
0.0
  0
VERTEX
  5
9CF
  8
0
 10
212.18541844331421
 20
111.4454752564701
 30
0.0
  0
VERTEX
  5
9D0
  8
0
 10
212.19389265371569
 20
111.45713672882459
 30
0.0
  0
VERTEX
  5
9D1
  8
0
 10
212.2022736433637
 20
111.4688470310976
 30
0.0
  0
VERTEX
  5
9D2
  8
0
 10
212.21055845286921
 20
111.4806076429836
 30
0.0
  0
VERTEX
  5
9D3
  8
0
 10
212.21874560253781
 20
111.4924170847881
 30
0.0
  0
VERTEX
  5
9D4
  8
0
 10
212.22683509236921
 20
111.5042753565111
 30
0.0
  0
VERTEX
  5
9D5
  8
0
 10
212.23482396297479
 20
111.5161824581526
 30
0.0
  0
VERTEX
  5
9D6
  8
0
 10
212.24271369404869
 20
111.5281398694071
 30
0.0
  0
VERTEX
  5
9D7
  8
0
 10
212.25049984650769
 20
111.54014463088561
 30
0.0
  0
VERTEX
  5
9D8
  8
0
 10
212.25818242035169
 20
111.5521997019771
 30
0.0
  0
VERTEX
  5
9D9
  8
0
 10
212.26575993588619
 20
111.56430212329261
 30
0.0
  0
VERTEX
  5
9DA
  8
0
 10
212.2732309134168
 20
111.5764548542211
 30
0.0
  0
VERTEX
  5
9DB
  8
0
 10
212.28059387324879
 20
111.5886549353736
 30
0.0
  0
VERTEX
  5
9DC
  8
0
 10
212.28784881538229
 20
111.6009053261391
 30
0.0
  0
VERTEX
  5
9DD
  8
0
 10
212.2949927804282
 20
111.61320306712859
 30
0.0
  0
VERTEX
  5
9DE
  8
0
 10
212.30202428869219
 20
111.6255496380366
 30
0.0
  0
VERTEX
  5
9DF
  8
0
 10
212.3089433401743
 20
111.63794503886309
 30
0.0
  0
VERTEX
  5
9E0
  8
0
 10
212.3157469754853
 20
111.65038778991359
 30
0.0
  0
VERTEX
  5
9E1
  8
0
 10
212.32243519462531
 20
111.66287937088261
 30
0.0
  0
VERTEX
  5
9E2
  8
0
 10
212.32900651789981
 20
111.6754197817701
 30
0.0
  0
VERTEX
  5
9E3
  8
0
 10
212.33545946561421
 20
111.6880090225761
 30
0.0
  0
VERTEX
  5
9E4
  8
0
 10
212.3417925580743
 20
111.7006456136061
 30
0.0
  0
VERTEX
  5
9E5
  8
0
 10
212.3480043155852
 20
111.7133295548601
 30
0.0
  0
VERTEX
  5
9E6
  8
0
 10
212.35409325845279
 20
111.7260623260326
 30
0.0
  0
VERTEX
  5
9E7
  8
0
 10
212.36005790698221
 20
111.7388439271236
 30
0.0
  0
VERTEX
  5
9E8
  8
0
 10
212.36589826117381
 20
111.7516728784386
 30
0.0
  0
VERTEX
  5
9E9
  8
0
 10
212.3716113616382
 20
111.76454917997761
 30
0.0
  0
VERTEX
  5
9EA
  8
0
 10
212.3771972083758
 20
111.7774743114351
 30
0.0
  0
VERTEX
  5
9EB
  8
0
 10
212.38265284199721
 20
111.7904453134221
 30
0.0
  0
VERTEX
  5
9EC
  8
0
 10
212.38797826250271
 20
111.80346514532761
 30
0.0
  0
VERTEX
  5
9ED
  8
0
 10
212.3931705105033
 20
111.8165338071516
 30
0.0
  0
VERTEX
  5
9EE
  8
0
 10
212.3982310656933
 20
111.8296483395051
 30
0.0
  0
VERTEX
  5
9EF
  8
0
 10
212.4031569686837
 20
111.84281170177709
 30
0.0
  0
VERTEX
  5
9F0
  8
0
 10
212.4079452600858
 20
111.85602093457859
 30
0.0
  0
VERTEX
  5
9F1
  8
0
 10
212.41259741959371
 20
111.86927899729859
 30
0.0
  0
VERTEX
  5
9F2
  8
0
 10
212.41711048781869
 20
111.8825829305481
 30
0.0
  0
VERTEX
  5
9F3
  8
0
 10
212.42148298506629
 20
111.895935693716
 30
0.0
  0
VERTEX
  5
9F4
  8
0
 10
212.42571491133631
 20
111.9093343274136
 30
0.0
  0
VERTEX
  5
9F5
  8
0
 10
212.42980330723981
 20
111.9227803113351
 30
0.0
  0
VERTEX
  5
9F6
  8
0
 10
212.4337481727768
 20
111.9362736454806
 30
0.0
  0
VERTEX
  5
9F7
  8
0
 10
212.43754802825279
 20
111.9498143298501
 30
0.0
  0
VERTEX
  5
9F8
  8
0
 10
212.44119991427871
 20
111.9634023644435
 30
0.0
  0
VERTEX
  5
9F9
  8
0
 10
212.44470383085479
 20
111.9770362695666
 30
0.0
  0
VERTEX
  5
9FA
  8
0
 10
212.4480582982863
 20
111.99071752491361
 30
0.0
  0
VERTEX
  5
9FB
  8
0
 10
212.4512633165732
 20
112.0044461304846
 30
0.0
  0
VERTEX
  5
9FC
  8
0
 10
212.4543144466322
 20
112.0182206065851
 30
0.0
  0
VERTEX
  5
9FD
  8
0
 10
212.45721316815769
 20
112.0320409532151
 30
0.0
  0
VERTEX
  5
9FE
  8
0
 10
212.45995652176069
 20
112.0459101297636
 30
0.0
  0
VERTEX
  5
9FF
  8
0
 10
212.4626569642233
 20
112.0605383895906
 30
0.0
  0
VERTEX
  5
A00
  8
0
 10
212.46514137128881
 20
112.0751533321671
 30
0.0
  0
VERTEX
  5
A01
  8
0
 10
212.46741270234631
 20
112.0897549574931
 30
0.0
  0
VERTEX
  5
A02
  8
0
 10
212.4694694777013
 20
112.10434030617959
 30
0.0
  0
VERTEX
  5
A03
  8
0
 10
212.4713131770481
 20
112.1189064188376
 30
0.0
  0
VERTEX
  5
A04
  8
0
 10
212.4729438003873
 20
112.1334562548561
 30
0.0
  0
VERTEX
  5
A05
  8
0
 10
212.4743628274127
 20
112.1479838954571
 30
0.0
  0
VERTEX
  5
A06
  8
0
 10
212.4755687784301
 20
112.16249082033509
 30
0.0
  0
VERTEX
  5
A07
  8
0
 10
212.47656313313419
 20
112.1769740701011
 30
0.0
  0
VERTEX
  5
A08
  8
0
 10
212.47734589152469
 20
112.19143364475509
 30
0.0
  0
VERTEX
  5
A09
  8
0
 10
212.47792001299069
 20
112.2058680646025
 30
0.0
  0
VERTEX
  5
A0A
  8
0
 10
212.4782825381433
 20
112.2202743702546
 30
0.0
  0
VERTEX
  5
A0B
  8
0
 10
212.47843642637119
 20
112.2346510820166
 30
0.0
  0
VERTEX
  5
A0C
  8
0
 10
212.47838167767461
 20
112.24899967958309
 30
0.0
  0
VERTEX
  5
A0D
  8
0
 10
212.47811681235919
 20
112.2633157238706
 30
0.0
  0
VERTEX
  5
A0E
  8
0
 10
212.4776447898137
 20
112.2775992148791
 30
0.0
  0
VERTEX
  5
A0F
  8
0
 10
212.47696561003829
 20
112.2918486729141
 30
0.0
  0
VERTEX
  5
A10
  8
0
 10
212.4760792730327
 20
112.3060611385866
 30
0.0
  0
VERTEX
  5
A11
  8
0
 10
212.47498725849181
 20
112.32023809159099
 30
0.0
  0
VERTEX
  5
A12
  8
0
 10
212.47368808672081
 20
112.3343765725386
 30
0.0
  0
VERTEX
  5
A13
  8
0
 10
212.4721832374143
 20
112.3484736220401
 30
0.0
  0
VERTEX
  5
A14
  8
0
 10
212.4704741902668
 20
112.3625307197901
 30
0.0
  0
VERTEX
  5
A15
  8
0
 10
212.4685609452782
 20
112.3765449063996
 30
0.0
  0
VERTEX
  5
A16
  8
0
 10
212.46644202275431
 20
112.3905147021741
 30
0.0
  0
VERTEX
  5
A17
  8
0
 10
212.46412038208371
 20
112.4044401071136
 30
0.0
  0
VERTEX
  5
A18
  8
0
 10
212.46159602326671
 20
112.41831816182911
 30
0.0
  0
VERTEX
  5
A19
  8
0
 10
212.45886894630331
 20
112.4321473866261
 30
0.0
  0
VERTEX
  5
A1A
  8
0
 10
212.4559406308878
 20
112.44592778150459
 30
0.0
  0
VERTEX
  5
A1B
  8
0
 10
212.45280959732571
 20
112.4596563870756
 30
0.0
  0
VERTEX
  5
A1C
  8
0
 10
212.4494773253117
 20
112.4733332033391
 30
0.0
  0
VERTEX
  5
A1D
  8
0
 10
212.44594529454011
 20
112.48695527090609
 30
0.0
  0
VERTEX
  5
A1E
  8
0
 10
212.4422135050113
 20
112.50052258977659
 30
0.0
  0
VERTEX
  5
A1F
  8
0
 10
212.43828195672481
 20
112.51403368025611
 30
0.0
  0
VERTEX
  5
A20
  8
0
 10
212.4341506496807
 20
112.5274870626501
 30
0.0
  0
VERTEX
  5
A21
  8
0
 10
212.4298210635738
 20
112.5408797775696
 30
0.0
  0
VERTEX
  5
A22
  8
0
 10
212.42529319840381
 20
112.5542118250146
 30
0.0
  0
VERTEX
  5
A23
  8
0
 10
212.42056853386529
 20
112.56748172529061
 30
0.0
  0
VERTEX
  5
A24
  8
0
 10
212.41564706995831
 20
112.5806879987031
 30
0.0
  0
VERTEX
  5
A25
  8
0
 10
212.41052880668269
 20
112.59382916555759
 30
0.0
  0
VERTEX
  5
A26
  8
0
 10
212.40521374403869
 20
112.60690522585411
 30
0.0
  0
VERTEX
  5
A27
  8
0
 10
212.3997033617207
 20
112.6199117405091
 30
0.0
  0
VERTEX
  5
A28
  8
0
 10
212.39399765972871
 20
112.63284870952261
 30
0.0
  0
VERTEX
  5
A29
  8
0
 10
212.38809811775729
 20
112.64571613289461
 30
0.0
  0
VERTEX
  5
A2A
  8
0
 10
212.38200473580631
 20
112.6585110512361
 30
0.0
  0
VERTEX
  5
A2B
  8
0
 10
212.37571603418129
 20
112.6712334645471
 30
0.0
  0
VERTEX
  5
A2C
  8
0
 10
212.3692364519658
 20
112.683878933744
 30
0.0
  0
VERTEX
  5
A2D
  8
0
 10
212.3625630297708
 20
112.6964504182161
 30
0.0
  0
VERTEX
  5
A2E
  8
0
 10
212.35569724729069
 20
112.7089419991851
 30
0.0
  0
VERTEX
  5
A2F
  8
0
 10
212.34864058422031
 20
112.7213566360401
 30
0.0
  0
VERTEX
  5
A30
  8
0
 10
212.3413930405593
 20
112.7336884100031
 30
0.0
  0
VERTEX
  5
A31
  8
0
 10
212.33395461630769
 20
112.7459402804631
 30
0.0
  0
VERTEX
  5
A32
  8
0
 10
212.32632531146569
 20
112.7581078083366
 30
0.0
  0
VERTEX
  5
A33
  8
0
 10
212.31850808542231
 20
112.7701909936236
 30
0.0
  0
VERTEX
  5
A34
  8
0
 10
212.3104999787881
 20
112.7821883566296
 30
0.0
  0
VERTEX
  5
A35
  8
0
 10
212.30230395095271
 20
112.79409841766009
 30
0.0
  0
VERTEX
  5
A36
  8
0
 10
212.29392000191569
 20
112.8059182173261
 30
0.0
  0
VERTEX
  5
A37
  8
0
 10
212.28534961137169
 20
112.81764923532209
 30
0.0
  0
VERTEX
  5
A38
  8
0
 10
212.27658981993179
 20
112.8292885122591
 30
0.0
  0
VERTEX
  5
A39
  8
0
 10
212.26764506667931
 20
112.8408345684426
 30
0.0
  0
VERTEX
  5
A3A
  8
0
 10
212.2585138719196
 20
112.8522844444836
 30
0.0
  0
VERTEX
  5
A3B
  8
0
 10
212.24919623565319
 20
112.8636396200766
 30
0.0
  0
VERTEX
  5
A3C
  8
0
 10
212.2396951172687
 20
112.8748986155271
 30
0.0
  0
VERTEX
  5
A3D
  8
0
 10
212.23000755737729
 20
112.8860569917516
 30
0.0
  0
VERTEX
  5
A3E
  8
0
 10
212.2201365153677
 20
112.8971162284446
 30
0.0
  0
VERTEX
  5
A3F
  8
0
 10
212.2100819912402
 20
112.9080748459116
 30
0.0
  0
VERTEX
  5
A40
  8
0
 10
212.1998454646893
 20
112.9189298847636
 30
0.0
  0
VERTEX
  5
A41
  8
0
 10
212.19263491339069
 20
112.92661245860759
 30
0.0
  0
VERTEX
  5
A42
  8
0
 10
212.18466971789729
 20
112.9353130622676
 30
0.0
  0
VERTEX
  5
A43
  8
0
 10
212.1760061065998
 20
112.94488224659909
 30
0.0
  0
VERTEX
  5
A44
  8
0
 10
212.1666988281948
 20
112.9551676030686
 30
0.0
  0
VERTEX
  5
A45
  8
0
 10
212.15681002985119
 20
112.96601968253159
 30
0.0
  0
VERTEX
  5
A46
  8
0
 10
212.14639150087669
 20
112.97728755614909
 30
0.0
  0
VERTEX
  5
A47
  8
0
 10
212.13550538844029
 20
112.98882029508211
 30
0.0
  0
VERTEX
  5
A48
  8
0
 10
212.1242064412383
 20
113.0004684501861
 30
0.0
  0
VERTEX
  5
A49
  8
0
 10
212.1125523673561
 20
113.0120825723166
 30
0.0
  0
VERTEX
  5
A4A
  8
0
 10
212.1006008748798
 20
113.0235087732456
 30
0.0
  0
VERTEX
  5
A4B
  8
0
 10
212.08840819219961
 20
113.0345990835231
 30
0.0
  0
VERTEX
  5
A4C
  8
0
 10
212.0760335070963
 20
113.0452025743101
 30
0.0
  0
VERTEX
  5
A4D
  8
0
 10
212.06353304796011
 20
113.0551697964621
 30
0.0
  0
VERTEX
  5
A4E
  8
0
 10
212.05096304318269
 20
113.06434834144559
 30
0.0
  0
VERTEX
  5
A4F
  8
0
 10
212.03838268054361
 20
113.0725887601161
 30
0.0
  0
VERTEX
  5
A50
  8
0
 10
212.0258496681287
 20
113.07974012363459
 30
0.0
  0
VERTEX
  5
A51
  8
0
 10
212.0134187546343
 20
113.0856515031621
 30
0.0
  0
VERTEX
  5
A52
  8
0
 10
212.00114912784031
 20
113.0901749292486
 30
0.0
  0
VERTEX
  5
A53
  8
0
 10
211.98909849583239
 20
113.09315799336061
 30
0.0
  0
VERTEX
  5
A54
  8
0
 10
211.9773230870012
 20
113.094449766659
 30
0.0
  0
VERTEX
  5
A55
  8
0
 10
211.9658806094327
 20
113.0939007999996
 30
0.0
  0
SEQEND
  5
A56
  8
0
  0
POLYLINE
  5
A57
  8
0
 66
     1
 10
0.0
 20
0.0
 30
0.0
  0
VERTEX
  5
A58
  8
0
 10
211.7565201143222
 20
112.68217876476361
 30
0.0
  0
VERTEX
  5
A59
  8
0
 10
211.74772776960319
 20
112.6699727648331
 30
0.0
  0
VERTEX
  5
A5A
  8
0
 10
211.73905823952771
 20
112.65774013040161
 30
0.0
  0
VERTEX
  5
A5B
  8
0
 10
211.73050264592879
 20
112.64548530055259
 30
0.0
  0
VERTEX
  5
A5C
  8
0
 10
211.7220521106392
 20
112.6332097549806
 30
0.0
  0
VERTEX
  5
A5D
  8
0
 10
211.71369923518679
 20
112.6209164530746
 30
0.0
  0
VERTEX
  5
A5E
  8
0
 10
211.70543218201519
 20
112.60860983391809
 30
0.0
  0
VERTEX
  5
A5F
  8
0
 10
211.6972435526522
 20
112.59629285690011
 30
0.0
  0
VERTEX
  5
A60
  8
0
 10
211.6891229892363
 20
112.5839684814096
 30
0.0
  0
VERTEX
  5
A61
  8
0
 10
211.68106457298919
 20
112.57163966683559
 30
0.0
  0
VERTEX
  5
A62
  8
0
 10
211.67305646635529
 20
112.5593108522616
 30
0.0
  0
VERTEX
  5
A63
  8
0
 10
211.66508979116719
 20
112.5469835173821
 30
0.0
  0
VERTEX
  5
A64
  8
0
 10
211.6571586286473
 20
112.5346606215861
 30
0.0
  0
VERTEX
  5
A65
  8
0
 10
211.6492496615447
 20
112.52234808365159
 30
0.0
  0
VERTEX
  5
A66
  8
0
 10
211.64135845077629
 20
112.5100459035786
 30
0.0
  0
VERTEX
  5
A67
  8
0
 10
211.63347167909129
 20
112.49776000014511
 30
0.0
  0
VERTEX
  5
A68
  8
0
 10
211.62558342771169
 20
112.4854918530456
 30
0.0
  0
VERTEX
  5
A69
  8
0
 10
211.61768481847079
 20
112.47324442166909
 30
0.0
  0
VERTEX
  5
A6A
  8
0
 10
211.60976401381211
 20
112.4610236247935
 30
0.0
  0
VERTEX
  5
A6B
  8
0
 10
211.60181509495831
 20
112.44882798272459
 30
0.0
  0
VERTEX
  5
A6C
  8
0
 10
211.5938277040473
 20
112.4366648939346
 30
0.0
  0
VERTEX
  5
A6D
  8
0
 10
211.58579296291239
 20
112.42453731781259
 30
0.0
  0
VERTEX
  5
A6E
  8
0
 10
211.57770199338631
 20
112.4124452543586
 30
0.0
  0
VERTEX
  5
A6F
  8
0
 10
211.56954591730229
 20
112.4003946223506
 30
0.0
  0
VERTEX
  5
A70
  8
0
 10
211.5613158564932
 20
112.38838838117761
 30
0.0
  0
VERTEX
  5
A71
  8
0
 10
211.5530029327922
 20
112.3764280105341
 30
0.0
  0
VERTEX
  5
A72
  8
0
 10
211.5445982680323
 20
112.3645194291981
 30
0.0
  0
VERTEX
  5
A73
  8
0
 10
211.53609150435179
 20
112.3526626371696
 30
0.0
  0
VERTEX
  5
A74
  8
0
 10
211.5274752432783
 20
112.3408635532266
 30
0.0
  0
VERTEX
  5
A75
  8
0
 10
211.5187406066448
 20
112.32912513675809
 30
0.0
  0
VERTEX
  5
A76
  8
0
 10
211.50987871628431
 20
112.31744886745859
 30
0.0
  0
VERTEX
  5
A77
  8
0
 10
211.5008792143353
 20
112.3058391844116
 30
0.0
  0
VERTEX
  5
A78
  8
0
 10
211.4917347023252
 20
112.29429904700611
 30
0.0
  0
VERTEX
  5
A79
  8
0
 10
211.48243482239269
 20
112.2828314146311
 30
0.0
  0
VERTEX
  5
A7A
  8
0
 10
211.47297069637079
 20
112.2714392466756
 30
0.0
  0
VERTEX
  5
A7B
  8
0
 10
211.46333492578671
 20
112.2601269822231
 30
0.0
  0
VERTEX
  5
A7C
  8
0
 10
211.4535171527792
 20
112.2488975806626
 30
0.0
  0
VERTEX
  5
A7D
  8
0
 10
211.44350849918121
 20
112.23775252168861
 30
0.0
  0
VERTEX
  5
A7E
  8
0
 10
211.43330156652021
 20
112.2266977240791
 30
0.0
  0
VERTEX
  5
A7F
  8
0
 10
211.4228859969347
 20
112.2157331878341
 30
0.0
  0
VERTEX
  5
A80
  8
0
 10
211.4122529122578
 20
112.2048648317315
 30
0.0
  0
VERTEX
  5
A81
  8
0
 10
211.40139343432219
 20
112.19409561516061
 30
0.0
  0
VERTEX
  5
A82
  8
0
 10
211.39039634479829
 20
112.1835039619296
 30
0.0
  0
VERTEX
  5
A83
  8
0
 10
211.37927940001981
 20
112.17308543295511
 30
0.0
  0
VERTEX
  5
A84
  8
0
 10
211.36804112029211
 20
112.16283706884811
 30
0.0
  0
VERTEX
  5
A85
  8
0
 10
211.35668742439381
 20
112.1527529508306
 30
0.0
  0
VERTEX
  5
A86
  8
0
 10
211.34521831232419
 20
112.1428330789026
 30
0.0
  0
VERTEX
  5
A87
  8
0
 10
211.3336382231673
 20
112.13307301398061
 30
0.0
  0
VERTEX
  5
A88
  8
0
 10
211.32194863661729
 20
112.1234668372866
 30
0.0
  0
VERTEX
  5
A89
  8
0
 10
211.3101539917578
 20
112.11401454882061
 30
0.0
  0
VERTEX
  5
A8A
  8
0
 10
211.29825428858871
 20
112.1047102298046
 30
0.0
  0
VERTEX
  5
A8B
  8
0
 10
211.28625396619381
 20
112.0955509208496
 30
0.0
  0
VERTEX
  5
A8C
  8
0
 10
211.27415450426719
 20
112.0865351422611
 30
0.0
  0
VERTEX
  5
A8D
  8
0
 10
211.26195886219821
 20
112.07765697526111
 30
0.0
  0
VERTEX
  5
A8E
  8
0
 10
211.24966999937581
 20
112.06891346046061
 30
0.0
  0
VERTEX
  5
A8F
  8
0
 10
211.23728939549429
 20
112.06030163847061
 30
0.0
  0
VERTEX
  5
A90
  8
0
 10
211.22482148963729
 20
112.05181854990209
 30
0.0
  0
VERTEX
  5
A91
  8
0
 10
211.21226776149911
 20
112.04345975567161
 30
0.0
  0
VERTEX
  5
A92
  8
0
 10
211.1996311704693
 20
112.0352222963901
 30
0.0
  0
VERTEX
  5
A93
  8
0
 10
211.1869131962417
 20
112.02710321266861
 30
0.0
  0
VERTEX
  5
A94
  8
0
 10
211.17411827790019
 20
112.01909806542361
 30
0.0
  0
VERTEX
  5
A95
  8
0
 10
211.1612478951393
 20
112.01120389526611
 30
0.0
  0
VERTEX
  5
A96
  8
0
 10
211.1483050073478
 20
112.0034177428071
 30
0.0
  0
VERTEX
  5
A97
  8
0
 10
211.13529109422029
 20
111.99573516896299
 30
0.0
  0
VERTEX
  5
A98
  8
0
 10
211.12221059484031
 20
111.9881532143451
 30
0.0
  0
VERTEX
  5
A99
  8
0
 10
211.10906498890219
 20
111.9806689195641
 30
0.0
  0
VERTEX
  5
A9A
  8
0
 10
211.09585723579531
 20
111.9732778455366
 30
0.0
  0
VERTEX
  5
A9B
  8
0
 10
211.0825888152138
 20
111.9659785125681
 30
0.0
  0
VERTEX
  5
A9C
  8
0
 10
211.06926416624131
 20
111.95876500188059
 30
0.0
  0
VERTEX
  5
A9D
  8
0
 10
211.0558847685723
 20
111.9516343540851
 30
0.0
  0
VERTEX
  5
A9E
  8
0
 10
211.04245358159579
 20
111.9445836097926
 30
0.0
  0
VERTEX
  5
A9F
  8
0
 10
211.02897356470081
 20
111.9376098096141
 30
0.0
  0
VERTEX
  5
AA0
  8
0
 10
211.01544619758189
 20
111.93070999416059
 30
0.0
  0
VERTEX
  5
AA1
  8
0
 10
211.00187591932229
 20
111.92387972434859
 30
0.0
  0
VERTEX
  5
AA2
  8
0
 10
210.9853862038141
 20
111.9155904757596
 30
0.0
  0
VERTEX
  5
AA3
  8
0
 10
210.96971179997581
 20
111.90758828790359
 30
0.0
  0
VERTEX
  5
AA4
  8
0
 10
210.95482607330581
 20
111.8998124933061
 30
0.0
  0
VERTEX
  5
AA5
  8
0
 10
210.94070534869221
 20
111.8921994651036
 30
0.0
  0
VERTEX
  5
AA6
  8
0
 10
210.92732299163421
 20
111.8846900155161
 30
0.0
  0
VERTEX
  5
AA7
  8
0
 10
210.91465828640881
 20
111.8772219973746
 30
0.0
  0
VERTEX
  5
AA8
  8
0
 10
210.90268311882019
 20
111.8697332635101
 30
0.0
  0
VERTEX
  5
AA9
  8
0
 10
210.89137381375679
 20
111.86216166675359
 30
0.0
  0
VERTEX
  5
AAA
  8
0
 10
210.8807052164118
 20
111.8544465396306
 30
0.0
  0
VERTEX
  5
AAB
  8
0
 10
210.8706521719788
 20
111.8465257349721
 30
0.0
  0
VERTEX
  5
AAC
  8
0
 10
210.86119248504031
 20
111.8383385853036
 30
0.0
  0
VERTEX
  5
AAD
  8
0
 10
210.8522980414007
 20
111.82982294345609
 30
0.0
  0
VERTEX
  5
AAE
  8
0
 10
210.84394664564269
 20
111.8209166622606
 30
0.0
  0
VERTEX
  5
AAF
  8
0
 10
210.83611166326531
 20
111.81155759454811
 30
0.0
  0
VERTEX
  5
AB0
  8
0
 10
210.82877089885079
 20
111.8016865525386
 30
0.0
  0
VERTEX
  5
AB1
  8
0
 10
210.82189623820369
 20
111.7912399093686
 30
0.0
  0
VERTEX
  5
AB2
  8
0
 10
210.8154654859068
 20
111.78015699756359
 30
0.0
  0
VERTEX
  5
AB3
  8
0
 10
210.80945348715329
 20
111.7683771496491
 30
0.0
  0
VERTEX
  5
AB4
  8
0
 10
210.8038350871368
 20
111.7558352590671
 30
0.0
  0
VERTEX
  5
AB5
  8
0
 10
210.7985866107453
 20
111.7424736177321
 30
0.0
  0
VERTEX
  5
AB6
  8
0
 10
210.79368142347761
 20
111.7282285987806
 30
0.0
  0
VERTEX
  5
AB7
  8
0
 10
210.78909585022231
 20
111.7130395347381
 30
0.0
  0
VERTEX
  5
AB8
  8
0
 10
210.7848047361723
 20
111.69684427843561
 30
0.0
  0
VERTEX
  5
AB9
  8
0
 10
210.7807844062157
 20
111.6795806827041
 30
0.0
  0
VERTEX
  5
ABA
  8
0
 10
210.77700970554631
 20
111.6611895597636
 30
0.0
  0
VERTEX
  5
ABB
  8
0
 10
210.77528882084269
 20
111.6530068491786
 30
0.0
  0
VERTEX
  5
ABC
  8
0
 10
210.7730914745103
 20
111.6434125100406
 30
0.0
  0
VERTEX
  5
ABD
  8
0
 10
210.77058783141629
 20
111.6326506919421
 30
0.0
  0
VERTEX
  5
ABE
  8
0
 10
210.7679436173448
 20
111.6209611053921
 30
0.0
  0
VERTEX
  5
ABF
  8
0
 10
210.76532899716321
 20
111.6085849405941
 30
0.0
  0
VERTEX
  5
AC0
  8
0
 10
210.76290969665581
 20
111.5957663471406
 30
0.0
  0
VERTEX
  5
AC1
  8
0
 10
210.7608558806898
 20
111.58274355584599
 30
0.0
  0
VERTEX
  5
AC2
  8
0
 10
210.75933475474369
 20
111.56976071630309
 30
0.0
  0
VERTEX
  5
AC3
  8
0
 10
210.75851352429629
 20
111.55705901871509
 30
0.0
  0
VERTEX
  5
AC4
  8
0
 10
210.75856087452021
 20
111.5448781735911
 30
0.0
  0
VERTEX
  5
AC5
  8
0
 10
210.75964697028331
 20
111.53346381021809
 30
0.0
  0
VERTEX
  5
AC6
  8
0
 10
210.7619360576748
 20
111.52305415941061
 30
0.0
  0
VERTEX
  5
AC7
  8
0
 10
210.7655997812567
 20
111.5138904113721
 30
0.0
  0
VERTEX
  5
AC8
  8
0
 10
210.7708038668132
 20
111.50621819538959
 30
0.0
  0
VERTEX
  5
AC9
  8
0
 10
210.77771699951731
 20
111.5002742625831
 30
0.0
  0
VERTEX
  5
ACA
  8
0
 10
210.7865078645417
 20
111.4963042422396
 30
0.0
  0
VERTEX
  5
ACB
  8
0
 10
210.79734366736531
 20
111.49454784486799
 30
0.0
  0
VERTEX
  5
ACC
  8
0
 10
210.8103945728553
 20
111.49524774036659
 30
0.0
  0
VERTEX
  5
ACD
  8
0
 10
210.82368518885431
 20
111.4975471856196
 30
0.0
  0
VERTEX
  5
ACE
  8
0
 10
210.8371933199447
 20
111.5006870973486
 30
0.0
  0
VERTEX
  5
ACF
  8
0
 10
210.85088493315331
 20
111.50460236899561
 30
0.0
  0
VERTEX
  5
AD0
  8
0
 10
210.86472599550629
 20
111.5092308533916
 30
0.0
  0
VERTEX
  5
AD1
  8
0
 10
210.8786839537247
 20
111.51450892367311
 30
0.0
  0
VERTEX
  5
AD2
  8
0
 10
210.89272477483519
 20
111.52037591236559
 30
0.0
  0
VERTEX
  5
AD3
  8
0
 10
210.90681590555869
 20
111.5267681926056
 30
0.0
  0
VERTEX
  5
AD4
  8
0
 10
210.92092479261629
 20
111.5336221375296
 30
0.0
  0
VERTEX
  5
AD5
  8
0
 10
210.93501592333979
 20
111.5408770796631
 30
0.0
  0
VERTEX
  5
AD6
  8
0
 10
210.9490567444503
 20
111.54846939214259
 30
0.0
  0
VERTEX
  5
AD7
  8
0
 10
210.9630132229743
 20
111.5563354481046
 30
0.0
  0
VERTEX
  5
AD8
  8
0
 10
210.97685428532719
 20
111.5644145800746
 30
0.0
  0
VERTEX
  5
AD9
  8
0
 10
210.9905444188413
 20
111.57264316118911
 30
0.0
  0
VERTEX
  5
ADA
  8
0
 10
211.00405107023721
 20
111.58095756458459
 30
0.0
  0
VERTEX
  5
ADB
  8
0
 10
211.01734168623619
 20
111.5892971227866
 30
0.0
  0
VERTEX
  5
ADC
  8
0
 10
211.0303807541703
 20
111.5975982089316
 30
0.0
  0
VERTEX
  5
ADD
  8
0
 10
211.04313720045479
 20
111.6057971961561
 30
0.0
  0
VERTEX
  5
ADE
  8
0
 10
211.0555755124218
 20
111.6138334169856
 30
0.0
  0
VERTEX
  5
ADF
  8
0
 10
211.06766461648681
 20
111.62164324455659
 30
0.0
  0
VERTEX
  5
AE0
  8
0
 10
211.0793689999818
 20
111.6291645317001
 30
0.0
  0
VERTEX
  5
AE1
  8
0
 10
211.09065758932229
 20
111.6363336515526
 30
0.0
  0
VERTEX
  5
AE2
  8
0
 10
211.10345250766369
 20
111.64444977588511
 30
0.0
  0
VERTEX
  5
AE3
  8
0
 10
211.11615864433529
 20
111.6526236083031
 30
0.0
  0
VERTEX
  5
AE4
  8
0
 10
211.12877747903121
 20
111.6608551488066
 30
0.0
  0
VERTEX
  5
AE5
  8
0
 10
211.1413045726683
 20
111.66914735678461
 30
0.0
  0
VERTEX
  5
AE6
  8
0
 10
211.15374288463519
 20
111.67750023223699
 30
0.0
  0
VERTEX
  5
AE7
  8
0
 10
211.16609093523769
 20
111.6859152548586
 30
0.0
  0
VERTEX
  5
AE8
  8
0
 10
211.17834724478129
 20
111.6943924246491
 30
0.0
  0
VERTEX
  5
AE9
  8
0
 10
211.1905118132658
 20
111.70293618069211
 30
0.0
  0
VERTEX
  5
AEA
  8
0
 10
211.2025846406913
 20
111.7115450432931
 30
0.0
  0
VERTEX
  5
AEB
  8
0
 10
211.2145657270577
 20
111.7202219718411
 30
0.0
  0
VERTEX
  5
AEC
  8
0
 10
211.22645359267079
 20
111.7289669663361
 30
0.0
  0
VERTEX
  5
AED
  8
0
 10
211.23824971722479
 20
111.7377815064726
 30
0.0
  0
VERTEX
  5
AEE
  8
0
 10
211.2499511413308
 20
111.7466670719451
 30
0.0
  0
VERTEX
  5
AEF
  8
0
 10
211.2615578649887
 20
111.7556251424481
 30
0.0
  0
VERTEX
  5
AF0
  8
0
 10
211.27307136789329
 20
111.7646571976761
 30
0.0
  0
VERTEX
  5
AF1
  8
0
 10
211.28448869065531
 20
111.7737647173236
 30
0.0
  0
VERTEX
  5
AF2
  8
0
 10
211.29581131296931
 20
111.78294622169599
 30
0.0
  0
VERTEX
  5
AF3
  8
0
 10
211.3070377551407
 20
111.79220762957161
 30
0.0
  0
VERTEX
  5
AF4
  8
0
 10
211.3181680171698
 20
111.80154598156111
 30
0.0
  0
VERTEX
  5
AF5
  8
0
 10
211.32920209905629
 20
111.8109657167481
 30
0.0
  0
VERTEX
  5
AF6
  8
0
 10
211.34013852110581
 20
111.8204653554381
 30
0.0
  0
VERTEX
  5
AF7
  8
0
 10
211.3509772833182
 20
111.83004785702011
 30
0.0
  0
VERTEX
  5
AF8
  8
0
 10
211.36171838569371
 20
111.8397147011886
 30
0.0
  0
VERTEX
  5
AF9
  8
0
 10
211.3723603485378
 20
111.84946588794359
 30
0.0
  0
VERTEX
  5
AFA
  8
0
 10
211.38290317185019
 20
111.8593043766741
 30
0.0
  0
VERTEX
  5
AFB
  8
0
 10
211.39334685563131
 20
111.86922868768561
 30
0.0
  0
VERTEX
  5
AFC
  8
0
 10
211.4036913998809
 20
111.8792432600616
 30
0.0
  0
VERTEX
  5
AFD
  8
0
 10
211.41393532490429
 20
111.8893480938021
 30
0.0
  0
VERTEX
  5
AFE
  8
0
 10
211.4240786307017
 20
111.8995431889071
 30
0.0
  0
VERTEX
  5
AFF
  8
0
 10
211.43411983757869
 20
111.90983150476561
 30
0.0
  0
VERTEX
  5
B00
  8
0
 10
211.44406042522979
 20
111.9202145210721
 30
0.0
  0
VERTEX
  5
B01
  8
0
 10
211.4538989139603
 20
111.93069223782661
 30
0.0
  0
VERTEX
  5
B02
  8
0
 10
211.4636353037703
 20
111.94126613472361
 30
0.0
  0
VERTEX
  5
B03
  8
0
 10
211.47326811496529
 20
111.9519376914576
 30
0.0
  0
VERTEX
  5
B04
  8
0
 10
211.48279734754519
 20
111.9627083877231
 30
0.0
  0
VERTEX
  5
B05
  8
0
 10
211.4922230015103
 20
111.9735797032145
 30
0.0
  0
VERTEX
  5
B06
  8
0
 10
211.5015450768602
 20
111.9845516379321
 30
0.0
  0
VERTEX
  5
B07
  8
0
 10
211.51076061420611
 20
111.9956271512646
 30
0.0
  0
VERTEX
  5
B08
  8
0
 10
211.5198725729372
 20
112.0068062432121
 30
0.0
  0
VERTEX
  5
B09
  8
0
 10
211.5288794733587
 20
112.0180918731636
 30
0.0
  0
VERTEX
  5
B0A
  8
0
 10
211.5377783560817
 20
112.0294825614246
 30
0.0
  0
VERTEX
  5
B0B
  8
0
 10
211.5465721804953
 20
112.0409827470786
 30
0.0
  0
VERTEX
  5
B0C
  8
0
 10
211.55525946690469
 20
112.0525909504311
 30
0.0
  0
VERTEX
  5
B0D
  8
0
 10
211.56383873561569
 20
112.0643086511766
 30
0.0
  0
VERTEX
  5
B0E
  8
0
 10
211.5723099866282
 20
112.07614028839861
 30
0.0
  0
VERTEX
  5
B0F
  8
0
 10
211.5806732199423
 20
112.088082902708
 30
0.0
  0
VERTEX
  5
B10
  8
0
 10
211.5889269558632
 20
112.1001409331886
 30
0.0
  0
VERTEX
  5
B11
  8
0
 10
211.59707267408581
 20
112.1123143798401
 30
0.0
  0
VERTEX
  5
B12
  8
0
 10
211.6051088949153
 20
112.12460472235711
 30
0.0
  0
VERTEX
  5
B13
  8
0
 10
211.6130341386573
 20
112.1370119607396
 30
0.0
  0
VERTEX
  5
B14
  8
0
 10
211.62084988500629
 20
112.1495390543766
 30
0.0
  0
VERTEX
  5
B15
  8
0
 10
211.62855317457331
 20
112.16218748296259
 30
0.0
  0
VERTEX
  5
B16
  8
0
 10
211.63614696674711
 20
112.1749572464976
 30
0.0
  0
VERTEX
  5
B17
  8
0
 10
211.64362830213929
 20
112.18784982467611
 30
0.0
  0
VERTEX
  5
B18
  8
0
 10
211.65099718074919
 20
112.20086669719259
 30
0.0
  0
VERTEX
  5
B19
  8
0
 10
211.65825212288269
 20
112.2140108234361
 30
0.0
  0
VERTEX
  5
B1A
  8
0
 10
211.6653960879288
 20
112.2272807237121
 30
0.0
  0
VERTEX
  5
B1B
  8
0
 10
211.67242611649829
 20
112.2406778777151
 30
0.0
  0
VERTEX
  5
B1C
  8
0
 10
211.67934072889679
 20
112.2542052448341
 30
0.0
  0
VERTEX
  5
B1D
  8
0
 10
211.68614288451329
 20
112.26786430476361
 30
0.0
  0
VERTEX
  5
B1E
  8
0
 10
211.6908024424938
 20
112.27736986223159
 30
0.0
  0
VERTEX
  5
B1F
  8
0
 10
211.69576385815219
 20
112.28756791672561
 30
0.0
  0
VERTEX
  5
B20
  8
0
 10
211.7009812609592
 20
112.2984096383271
 30
0.0
  0
VERTEX
  5
B21
  8
0
 10
211.70640730069081
 20
112.3098476768121
 30
0.0
  0
VERTEX
  5
B22
  8
0
 10
211.7119961068172
 20
112.32183616165111
 30
0.0
  0
VERTEX
  5
B23
  8
0
 10
211.7177032885038
 20
112.33432922231459
 30
0.0
  0
VERTEX
  5
B24
  8
0
 10
211.7234829752208
 20
112.34727802888411
 30
0.0
  0
VERTEX
  5
B25
  8
0
 10
211.72928633704981
 20
112.3606352311356
 30
0.0
  0
VERTEX
  5
B26
  8
0
 10
211.7350689831558
 20
112.3743564382341
 30
0.0
  0
VERTEX
  5
B27
  8
0
 10
211.74078504300931
 20
112.3883928202611
 30
0.0
  0
VERTEX
  5
B28
  8
0
 10
211.74638864608079
 20
112.4026985066871
 30
0.0
  0
VERTEX
  5
B29
  8
0
 10
211.75183392184081
 20
112.4172261472881
 30
0.0
  0
VERTEX
  5
B2A
  8
0
 10
211.75707499975971
 20
112.4319283918401
 30
0.0
  0
VERTEX
  5
B2B
  8
0
 10
211.76206304991919
 20
112.44675936981361
 30
0.0
  0
VERTEX
  5
B2C
  8
0
 10
211.7667566408733
 20
112.46167173098461
 30
0.0
  0
VERTEX
  5
B2D
  8
0
 10
211.77110546300869
 20
112.47661812512899
 30
0.0
  0
VERTEX
  5
B2E
  8
0
 10
211.77506660518529
 20
112.49155268171759
 30
0.0
  0
VERTEX
  5
B2F
  8
0
 10
211.7785927171787
 20
112.50642657083159
 30
0.0
  0
VERTEX
  5
B30
  8
0
 10
211.7816379284597
 20
112.52119540163611
 30
0.0
  0
VERTEX
  5
B31
  8
0
 10
211.7841548888043
 20
112.53581034421261
 30
0.0
  0
VERTEX
  5
B32
  8
0
 10
211.78610068707181
 20
112.5502255280316
 30
0.0
  0
VERTEX
  5
B33
  8
0
 10
211.7874264933437
 20
112.5643936028691
 30
0.0
  0
VERTEX
  5
B34
  8
0
 10
211.78808791678529
 20
112.5782686981956
 30
0.0
  0
VERTEX
  5
B35
  8
0
 10
211.7880376071723
 20
112.5918019840926
 30
0.0
  0
VERTEX
  5
B36
  8
0
 10
211.78723117366971
 20
112.6049475900306
 30
0.0
  0
VERTEX
  5
B37
  8
0
 10
211.78562126605371
 20
112.6176596454801
 30
0.0
  0
VERTEX
  5
B38
  8
0
 10
211.78316201379479
 20
112.62988932052259
 30
0.0
  0
VERTEX
  5
B39
  8
0
 10
211.77980754636329
 20
112.64159222432311
 30
0.0
  0
VERTEX
  5
B3A
  8
0
 10
211.7755119932298
 20
112.65271804726861
 30
0.0
  0
VERTEX
  5
B3B
  8
0
 10
211.7702294838648
 20
112.6632223985241
 30
0.0
  0
VERTEX
  5
B3C
  8
0
 10
211.7639141477388
 20
112.6730579278656
 30
0.0
  0
VERTEX
  5
B3D
  8
0
 10
211.7565201143222
 20
112.68217876476361
 30
0.0
  0
SEQEND
  5
B3E
  8
0
  0
POLYLINE
  5
B3F
  8
0
 66
     1
 10
0.0
 20
0.0
 30
0.0
  0
VERTEX
  5
B40
  8
0
 10
207.9537052493223
 20
112.0903009647636
 30
0.0
  0
VERTEX
  5
B41
  8
0
 10
207.94071649100121
 20
112.08907429802311
 30
0.0
  0
VERTEX
  5
B42
  8
0
 10
207.9276626261223
 20
112.08766266947011
 30
0.0
  0
VERTEX
  5
B43
  8
0
 10
207.91454365468519
 20
112.08606459941009
 30
0.0
  0
VERTEX
  5
B44
  8
0
 10
207.9013654954683
 20
112.0842845269266
 30
0.0
  0
VERTEX
  5
B45
  8
0
 10
207.8881281484712
 20
112.0823239317141
 30
0.0
  0
VERTEX
  5
B46
  8
0
 10
207.87483457308321
 20
112.0801857731616
 30
0.0
  0
VERTEX
  5
B47
  8
0
 10
207.86148772869319
 20
112.07787153096361
 30
0.0
  0
VERTEX
  5
B48
  8
0
 10
207.84808909499569
 20
112.0753841645091
 30
0.0
  0
VERTEX
  5
B49
  8
0
 10
207.8346431110742
 20
112.0727251534926
 30
0.0
  0
VERTEX
  5
B4A
  8
0
 10
207.82114977692879
 20
112.0698974573031
 30
0.0
  0
VERTEX
  5
B4B
  8
0
 10
207.8076135316428
 20
112.0669025556351
 30
0.0
  0
VERTEX
  5
B4C
  8
0
 10
207.79403733460529
 20
112.0637434078776
 30
0.0
  0
VERTEX
  5
B4D
  8
0
 10
207.78042118581621
 20
112.06042297341961
 30
0.0
  0
VERTEX
  5
B4E
  8
0
 10
207.76676952435929
 20
112.0569412522611
 30
0.0
  0
VERTEX
  5
B4F
  8
0
 10
207.75308382992881
 20
112.0533026834856
 30
0.0
  0
VERTEX
  5
B50
  8
0
 10
207.7393670619137
 20
112.0495102264821
 30
0.0
  0
VERTEX
  5
B51
  8
0
 10
207.72562217970321
 20
112.0455624015561
 30
0.0
  0
VERTEX
  5
B52
  8
0
 10
207.7118521426863
 20
112.04146512748559
 30
0.0
  0
VERTEX
  5
B53
  8
0
 10
207.69805695086279
 20
112.03721988396509
 30
0.0
  0
VERTEX
  5
B54
  8
0
 10
207.68424252301079
 20
112.0328281506891
 30
0.0
  0
VERTEX
  5
B55
  8
0
 10
207.6704088591303
 20
112.0282928870466
 30
0.0
  0
VERTEX
  5
B56
  8
0
 10
207.6565589186103
 20
112.0236155727321
 30
0.0
  0
VERTEX
  5
B57
  8
0
 10
207.64269566083971
 20
112.0187991671346
 30
0.0
  0
VERTEX
  5
B58
  8
0
 10
207.62882056551319
 20
112.0138466296431
 30
0.0
  0
VERTEX
  5
B59
  8
0
 10
207.61493807171431
 20
112.0087579602575
 30
0.0
  0
VERTEX
  5
B5A
  8
0
 10
207.60104965913729
 20
112.0035375980616
 30
0.0
  0
VERTEX
  5
B5B
  8
0
 10
207.5871568074767
 20
111.9981870227496
 30
0.0
  0
VERTEX
  5
B5C
  8
0
 10
207.57326395581629
 20
111.99270771401611
 30
0.0
  0
VERTEX
  5
B5D
  8
0
 10
207.55937258385029
 20
111.9871041109446
 30
0.0
  0
VERTEX
  5
B5E
  8
0
 10
207.54548417127319
 20
111.9813776932296
 30
0.0
  0
VERTEX
  5
B5F
  8
0
 10
207.53160315716869
 20
111.9755284608711
 30
0.0
  0
VERTEX
  5
B60
  8
0
 10
207.51773102123121
 20
111.9695608529526
 30
0.0
  0
VERTEX
  5
B61
  8
0
 10
207.5038707228498
 20
111.96347782886311
 30
0.0
  0
VERTEX
  5
B62
  8
0
 10
207.4900252214133
 20
111.9572808682971
 30
0.0
  0
VERTEX
  5
B63
  8
0
 10
207.47619451692179
 20
111.95096997125459
 30
0.0
  0
VERTEX
  5
B64
  8
0
 10
207.46238452815331
 20
111.9445510565136
 30
0.0
  0
VERTEX
  5
B65
  8
0
 10
207.44859525510779
 20
111.93802560376859
 30
0.0
  0
VERTEX
  5
B66
  8
0
 10
207.43482965717411
 20
111.93139361301959
 30
0.0
  0
VERTEX
  5
B67
  8
0
 10
207.42109217343619
 20
111.9246595233501
 30
0.0
  0
VERTEX
  5
B68
  8
0
 10
207.40738132419929
 20
111.9178248144546
 30
0.0
  0
VERTEX
  5
B69
  8
0
 10
207.39370450793569
 20
111.91089096602759
 30
0.0
  0
VERTEX
  5
B6A
  8
0
 10
207.3800602449513
 20
111.9038624171526
 30
0.0
  0
VERTEX
  5
B6B
  8
0
 10
207.36645297432929
 20
111.8967406475241
 30
0.0
  0
VERTEX
  5
B6C
  8
0
 10
207.35288565545881
 20
111.8895256571421
 30
0.0
  0
VERTEX
  5
B6D
  8
0
 10
207.3393582883397
 20
111.88222336478459
 30
0.0
  0
VERTEX
  5
B6E
  8
0
 10
207.3258767917502
 20
111.8748337704516
 30
0.0
  0
VERTEX
  5
B6F
  8
0
 10
207.3124411656901
 20
111.86735983353211
 30
0.0
  0
VERTEX
  5
B70
  8
0
 10
207.2990543695488
 20
111.8598030337206
 30
0.0
  0
VERTEX
  5
B71
  8
0
 10
207.28571936271479
 20
111.85216633040611
 30
0.0
  0
VERTEX
  5
B72
  8
0
 10
207.2724391045773
 20
111.8444526829776
 30
0.0
  0
VERTEX
  5
B73
  8
0
 10
207.25921359513629
 20
111.83666357112961
 30
0.0
  0
VERTEX
  5
B74
  8
0
 10
207.24604875316979
 20
111.8288004745566
 30
0.0
  0
VERTEX
  5
B75
  8
0
 10
207.23294605837231
 20
111.8208678323421
 30
0.0
  0
VERTEX
  5
B76
  8
0
 10
207.21990699043829
 20
111.8128656444861
 30
0.0
  0
VERTEX
  5
B77
  8
0
 10
207.20693450875669
 20
111.8047968703776
 30
0.0
  0
VERTEX
  5
B78
  8
0
 10
207.19403009302229
 20
111.7966659491001
 30
0.0
  0
VERTEX
  5
B79
  8
0
 10
207.1811981823183
 20
111.7884714009591
 30
0.0
  0
VERTEX
  5
B7A
  8
0
 10
207.16844173603371
 20
111.7802191447326
 30
0.0
  0
VERTEX
  5
B7B
  8
0
 10
207.15576075416871
 20
111.7719077007261
 30
0.0
  0
VERTEX
  5
B7C
  8
0
 10
207.1431581961123
 20
111.7635429877176
 30
0.0
  0
VERTEX
  5
B7D
  8
0
 10
207.1306385009477
 20
111.7551250057071
 30
0.0
  0
VERTEX
  5
B7E
  8
0
 10
207.11820166867531
 20
111.7466581937781
 30
0.0
  0
VERTEX
  5
B7F
  8
0
 10
207.10585361807281
 20
111.73814255193059
 30
0.0
  0
VERTEX
  5
B80
  8
0
 10
207.09359286944581
 20
111.7295795598591
 30
0.0
  0
VERTEX
  5
B81
  8
0
 10
207.08142386187779
 20
111.72097513634159
 30
0.0
  0
VERTEX
  5
B82
  8
0
 10
207.06934955475771
 20
111.7123292813781
 30
0.0
  0
VERTEX
  5
B83
  8
0
 10
207.05737290747479
 20
111.7036434746631
 30
0.0
  0
VERTEX
  5
B84
  8
0
 10
207.0454939200288
 20
111.6949221552801
 30
0.0
  0
VERTEX
  5
B85
  8
0
 10
207.0337185111978
 20
111.68616680292359
 30
0.0
  0
VERTEX
  5
B86
  8
0
 10
207.0220452012872
 20
111.67737889728809
 30
0.0
  0
VERTEX
  5
B87
  8
0
 10
207.0104799090752
 20
111.6685613977626
 30
0.0
  0
VERTEX
  5
B88
  8
0
 10
206.99902411425629
 20
111.65971578404159
 30
0.0
  0
VERTEX
  5
B89
  8
0
 10
206.9876792965247
 20
111.65084501551399
 30
0.0
  0
VERTEX
  5
B8A
  8
0
 10
206.9764484152698
 20
111.64195205156911
 30
0.0
  0
VERTEX
  5
B8B
  8
0
 10
206.9653344298801
 20
111.63303837190109
 30
0.0
  0
VERTEX
  5
B8C
  8
0
 10
206.9543402997453
 20
111.62410693589911
 30
0.0
  0
VERTEX
  5
B8D
  8
0
 10
206.94346750455921
 20
111.6151577435631
 30
0.0
  0
VERTEX
  5
B8E
  8
0
 10
206.9327190037113
 20
111.6061967136711
 30
0.0
  0
VERTEX
  5
B8F
  8
0
 10
206.9220977565902
 20
111.5972223665286
 30
0.0
  0
VERTEX
  5
B90
  8
0
 10
206.9116052428908
 20
111.5882406209136
 30
0.0
  0
VERTEX
  5
B91
  8
0
 10
206.9012444220017
 20
111.5792514768261
 30
0.0
  0
VERTEX
  5
B92
  8
0
 10
206.89101677361771
 20
111.57025641396061
 30
0.0
  0
VERTEX
  5
B93
  8
0
 10
206.88092821651679
 20
111.56125987140049
 30
0.0
  0
VERTEX
  5
B94
  8
0
 10
206.87097727100431
 20
111.5522633288406
 30
0.0
  0
VERTEX
  5
B95
  8
0
 10
206.86116837616379
 20
111.5432697456696
 30
0.0
  0
VERTEX
  5
B96
  8
0
 10
206.85150449138419
 20
111.53427912188759
 30
0.0
  0
VERTEX
  5
B97
  8
0
 10
206.8419870963603
 20
111.5252958965781
 30
0.0
  0
VERTEX
  5
B98
  8
0
 10
206.8326191504807
 20
111.51632302913011
 30
0.0
  0
VERTEX
  5
B99
  8
0
 10
206.82340213344031
 20
111.50735903984911
 30
0.0
  0
VERTEX
  5
B9A
  8
0
 10
206.81434048432229
 20
111.49841132720751
 30
0.0
  0
VERTEX
  5
B9B
  8
0
 10
206.8098481318203
 20
111.4939973985141
 30
0.0
  0
VERTEX
  5
B9C
  8
0
 10
206.80444132811729
 20
111.48876963784561
 30
0.0
  0
VERTEX
  5
B9D
  8
0
 10
206.79818961885479
 20
111.48277095634261
 30
0.0
  0
VERTEX
  5
B9E
  8
0
 10
206.79115959028519
 20
111.4760427854511
 30
0.0
  0
VERTEX
  5
B9F
  8
0
 10
206.78341930835569
 20
111.4686280363116
 30
0.0
  0
VERTEX
  5
BA0
  8
0
 10
206.7750397984021
 20
111.4605681403701
 30
0.0
  0
VERTEX
  5
BA1
  8
0
 10
206.7660891263717
 20
111.4519074884616
 30
0.0
  0
VERTEX
  5
BA2
  8
0
 10
206.7566353582113
 20
111.44268751203209
 30
0.0
  0
VERTEX
  5
BA3
  8
0
 10
206.7467465598678
 20
111.43295112222209
 30
0.0
  0
VERTEX
  5
BA4
  8
0
 10
206.7364922769828
 20
111.42274123017209
 30
0.0
  0
VERTEX
  5
BA5
  8
0
 10
206.7259405755033
 20
111.4120992673281
 30
0.0
  0
VERTEX
  5
BA6
  8
0
 10
206.71516248076529
 20
111.4010681448306
 30
0.0
  0
VERTEX
  5
BA7
  8
0
 10
206.7042230993267
 20
111.38969077382011
 30
0.0
  0
VERTEX
  5
BA8
  8
0
 10
206.69319345652369
 20
111.3780100654371
 30
0.0
  0
VERTEX
  5
BA9
  8
0
 10
206.68214161830321
 20
111.36606745112761
 30
0.0
  0
VERTEX
  5
BAA
  8
0
 10
206.67113565061231
 20
111.35390584203211
 30
0.0
  0
VERTEX
  5
BAB
  8
0
 10
206.66024509909229
 20
111.34156814929111
 30
0.0
  0
VERTEX
  5
BAC
  8
0
 10
206.64953950938479
 20
111.3290972840451
 30
0.0
  0
VERTEX
  5
BAD
  8
0
 10
206.63908546774229
 20
111.31653467773999
 30
0.0
  0
VERTEX
  5
BAE
  8
0
 10
206.62895251980629
 20
111.3039217618221
 30
0.0
  0
VERTEX
  5
BAF
  8
0
 10
206.6192087315238
 20
111.2913044068206
 30
0.0
  0
VERTEX
  5
BB0
  8
0
 10
206.6099236485363
 20
111.2787240441816
 30
0.0
  0
VERTEX
  5
BB1
  8
0
 10
206.60116681648529
 20
111.2662206256566
 30
0.0
  0
VERTEX
  5
BB2
  8
0
 10
206.59300482162331
 20
111.2538400217751
 30
0.0
  0
VERTEX
  5
BB3
  8
0
 10
206.5855072095919
 20
111.2416221842886
 30
0.0
  0
VERTEX
  5
BB4
  8
0
 10
206.5787435260323
 20
111.22961150403211
 30
0.0
  0
VERTEX
  5
BB5
  8
0
 10
206.57278183689161
 20
111.2178494124516
 30
0.0
  0
VERTEX
  5
BB6
  8
0
 10
206.56769020811731
 20
111.2063788206876
 30
0.0
  0
VERTEX
  5
BB7
  8
0
 10
206.56353670565571
 20
111.1952426398806
 30
0.0
  0
VERTEX
  5
BB8
  8
0
 10
206.56039235484329
 20
111.1844837811711
 30
0.0
  0
VERTEX
  5
BB9
  8
0
 10
206.5583252216268
 20
111.1741421963106
 30
0.0
  0
VERTEX
  5
BBA
  8
0
 10
206.55740189225881
 20
111.1642637558286
 30
0.0
  0
VERTEX
  5
BBB
  8
0
 10
206.55769339207529
 20
111.15488841147661
 30
0.0
  0
VERTEX
  5
BBC
  8
0
 10
206.5592663073287
 20
111.1460605540896
 30
0.0
  0
VERTEX
  5
BBD
  8
0
 10
206.56219166335529
 20
111.1378201354191
 30
0.0
  0
VERTEX
  5
BBE
  8
0
 10
206.56653604640729
 20
111.13021302599461
 30
0.0
  0
VERTEX
  5
BBF
  8
0
 10
206.57237048182071
 20
111.1232806572621
 30
0.0
  0
VERTEX
  5
BC0
  8
0
 10
206.58392393647671
 20
111.11464516015999
 30
0.0
  0
VERTEX
  5
BC1
  8
0
 10
206.59629270280229
 20
111.1103407288596
 30
0.0
  0
VERTEX
  5
BC2
  8
0
 10
206.60918380128629
 20
111.10971629778059
 30
0.0
  0
VERTEX
  5
BC3
  8
0
 10
206.62230721180671
 20
111.1121163622596
 30
0.0
  0
VERTEX
  5
BC4
  8
0
 10
206.6353684751582
 20
111.1168898567166
 30
0.0
  0
VERTEX
  5
BC5
  8
0
 10
206.64807757121881
 20
111.1233857155716
 30
0.0
  0
VERTEX
  5
BC6
  8
0
 10
206.66014152047731
 20
111.1309499138556
 30
0.0
  0
VERTEX
  5
BC7
  8
0
 10
206.67126882311729
 20
111.13892990629409
 30
0.0
  0
VERTEX
  5
BC8
  8
0
 10
206.6811679793222
 20
111.14667462730711
 30
0.0
  0
VERTEX
  5
BC9
  8
0
 10
206.69294930693121
 20
111.1562704461396
 30
0.0
  0
VERTEX
  5
BCA
  8
0
 10
206.70464037317581
 20
111.1659713232816
 30
0.0
  0
VERTEX
  5
BCB
  8
0
 10
206.71625153591719
 20
111.1757639414826
 30
0.0
  0
VERTEX
  5
BCC
  8
0
 10
206.7277916733228
 20
111.18563498349199
 30
0.0
  0
VERTEX
  5
BCD
  8
0
 10
206.7392711432538
 20
111.1955755711431
 30
0.0
  0
VERTEX
  5
BCE
  8
0
 10
206.7507003035717
 20
111.2055723871851
 30
0.0
  0
VERTEX
  5
BCF
  8
0
 10
206.76209099183279
 20
111.2156150737566
 30
0.0
  0
VERTEX
  5
BD0
  8
0
 10
206.77345356589839
 20
111.2256903136071
 30
0.0
  0
VERTEX
  5
BD1
  8
0
 10
206.78479690393519
 20
111.2357877488751
 30
0.0
  0
VERTEX
  5
BD2
  8
0
 10
206.79613284349969
 20
111.24589702169909
 30
0.0
  0
VERTEX
  5
BD3
  8
0
 10
206.80747026275861
 20
111.2560033351341
 30
0.0
  0
VERTEX
  5
BD4
  8
0
 10
206.8188209992683
 20
111.2660978110131
 30
0.0
  0
VERTEX
  5
BD5
  8
0
 10
206.8301954108897
 20
111.2761671320856
 30
0.0
  0
VERTEX
  5
BD6
  8
0
 10
206.84160385548469
 20
111.2862009404901
 30
0.0
  0
VERTEX
  5
BD7
  8
0
 10
206.85305521122029
 20
111.2961873986706
 30
0.0
  0
VERTEX
  5
BD8
  8
0
 10
206.8645627953467
 20
111.3061131893766
 30
0.0
  0
VERTEX
  5
BD9
  8
0
 10
206.87613400633671
 20
111.3159694344411
 30
0.0
  0
VERTEX
  5
BDA
  8
0
 10
206.88778068174639
 20
111.3257428166136
 30
0.0
  0
VERTEX
  5
BDB
  8
0
 10
206.89951465913131
 20
111.3354229780326
 30
0.0
  0
VERTEX
  5
BDC
  8
0
 10
206.91134333696431
 20
111.3449966014476
 30
0.0
  0
VERTEX
  5
BDD
  8
0
 10
206.92327855280129
 20
111.3544533289971
 30
0.0
  0
VERTEX
  5
BDE
  8
0
 10
206.9353321441983
 20
111.3637813231251
 30
0.0
  0
VERTEX
  5
BDF
  8
0
 10
206.94751298932229
 20
111.3729687462756
 30
0.0
  0
VERTEX
  5
BE0
  8
0
 10
206.95738255163729
 20
111.38018077726861
 30
0.0
  0
VERTEX
  5
BE1
  8
0
 10
206.96740452248571
 20
111.3872522372841
 30
0.0
  0
VERTEX
  5
BE2
  8
0
 10
206.9775744627841
 20
111.3941831263221
 30
0.0
  0
VERTEX
  5
BE3
  8
0
 10
206.9878864537547
 20
111.4009793631606
 30
0.0
  0
VERTEX
  5
BE4
  8
0
 10
206.99833753600831
 20
111.40764686657759
 30
0.0
  0
VERTEX
  5
BE5
  8
0
 10
207.00892179076669
 20
111.4141871162676
 30
0.0
  0
VERTEX
  5
BE6
  8
0
 10
207.0196362586413
 20
111.4206060310086
 30
0.0
  0
VERTEX
  5
BE7
  8
0
 10
207.0304765005483
 20
111.42690952957859
 30
0.0
  0
VERTEX
  5
BE8
  8
0
 10
207.04143511801519
 20
111.4330990916721
 30
0.0
  0
VERTEX
  5
BE9
  8
0
 10
207.0525106313477
 20
111.43918063606711
 30
0.0
  0
VERTEX
  5
BEA
  8
0
 10
207.06369712176769
 20
111.44515712215259
 30
0.0
  0
VERTEX
  5
BEB
  8
0
 10
207.07499015019181
 20
111.4510344687066
 30
0.0
  0
VERTEX
  5
BEC
  8
0
 10
207.08638527753629
 20
111.45681711481259
 30
0.0
  0
VERTEX
  5
BED
  8
0
 10
207.09787806471761
 20
111.4625094995541
 30
0.0
  0
VERTEX
  5
BEE
  8
0
 10
207.1094640726528
 20
111.46811310262559
 30
0.0
  0
VERTEX
  5
BEF
  8
0
 10
207.12113738256329
 20
111.47363680219409
 30
0.0
  0
VERTEX
  5
BF0
  8
0
 10
207.13289651475469
 20
111.4790805982596
 30
0.0
  0
VERTEX
  5
BF1
  8
0
 10
207.14473407075471
 20
111.48445336898909
 30
0.0
  0
VERTEX
  5
BF2
  8
0
 10
207.15664709117431
 20
111.4897551143826
 30
0.0
  0
VERTEX
  5
BF3
  8
0
 10
207.1686296572353
 20
111.49499323291261
 30
0.0
  0
VERTEX
  5
BF4
  8
0
 10
207.18067880954879
 20
111.5001692042736
 30
0.0
  0
VERTEX
  5
BF5
  8
0
 10
207.19279010903131
 20
111.5052904269381
 30
0.0
  0
VERTEX
  5
BF6
  8
0
 10
207.20495615721029
 20
111.5103598602951
 30
0.0
  0
VERTEX
  5
BF7
  8
0
 10
207.2171754743913
 20
111.5153819434281
 30
0.0
  0
VERTEX
  5
BF8
  8
0
 10
207.22944362149079
 20
111.5203611154206
 30
0.0
  0
VERTEX
  5
BF9
  8
0
 10
207.2417532000363
 20
111.5253018153561
 30
0.0
  0
VERTEX
  5
BFA
  8
0
 10
207.2541027303333
 20
111.5302084823181
 30
0.0
  0
VERTEX
  5
BFB
  8
0
 10
207.26648629360369
 20
111.5350855553901
 30
0.0
  0
VERTEX
  5
BFC
  8
0
 10
207.27889797106971
 20
111.53993599396109
 30
0.0
  0
VERTEX
  5
BFD
  8
0
 10
207.29133628303671
 20
111.5447657168091
 30
0.0
  0
VERTEX
  5
BFE
  8
0
 10
207.30379383103229
 20
111.5495791630176
 30
0.0
  0
VERTEX
  5
BFF
  8
0
 10
207.31626913536161
 20
111.55437929197559
 30
0.0
  0
VERTEX
  5
C00
  8
0
 10
207.32875479755279
 20
111.5591720224611
 30
0.0
  0
VERTEX
  5
C01
  8
0
 10
207.34124637852179
 20
111.56396031386311
 30
0.0
  0
VERTEX
  5
C02
  8
0
 10
207.35374091887971
 20
111.5687500849596
 30
0.0
  0
VERTEX
  5
C03
  8
0
 10
207.3662339795433
 20
111.5735442951396
 30
0.0
  0
VERTEX
  5
C04
  8
0
 10
207.37872112142881
 20
111.57834886318111
 30
0.0
  0
VERTEX
  5
C05
  8
0
 10
207.39119494606371
 20
111.5831652687786
 30
0.0
  0
VERTEX
  5
C06
  8
0
 10
207.40365397375371
 20
111.5880009104046
 30
0.0
  0
VERTEX
  5
C07
  8
0
 10
207.41609228572071
 20
111.5928587474481
 30
0.0
  0
VERTEX
  5
C08
  8
0
 10
207.42850692257579
 20
111.59774469868709
 30
0.0
  0
VERTEX
  5
C09
  8
0
 10
207.4408904858463
 20
111.6026602438161
 30
0.0
  0
VERTEX
  5
C0A
  8
0
 10
207.45324149583769
 20
111.6076113016131
 30
0.0
  0
VERTEX
  5
C0B
  8
0
 10
207.46555403377221
 20
111.6126037908561
 30
0.0
  0
VERTEX
  5
C0C
  8
0
 10
207.4778221808717
 20
111.6176391912396
 30
0.0
  0
VERTEX
  5
C0D
  8
0
 10
207.4900444574418
 20
111.62272342154159
 30
0.0
  0
VERTEX
  5
C0E
  8
0
 10
207.5022134650097
 20
111.62786092084561
 30
0.0
  0
VERTEX
  5
C0F
  8
0
 10
207.51432624418669
 20
111.63305464854059
 30
0.0
  0
VERTEX
  5
C10
  8
0
 10
207.52637835588919
 20
111.6383105234046
 30
0.0
  0
VERTEX
  5
C11
  8
0
 10
207.5383653610337
 20
111.6436329845211
 30
0.0
  0
VERTEX
  5
C12
  8
0
 10
207.5502798611478
 20
111.6490264709736
 30
0.0
  0
VERTEX
  5
C13
  8
0
 10
207.5621218562313
 20
111.65449394215111
 30
0.0
  0
VERTEX
  5
C14
  8
0
 10
207.57388394781171
 20
111.66003983713711
 30
0.0
  0
VERTEX
  5
C15
  8
0
 10
207.5855616968058
 20
111.6656700747095
 30
0.0
  0
VERTEX
  5
C16
  8
0
 10
207.59715066412971
 20
111.6713876142576
 30
0.0
  0
VERTEX
  5
C17
  8
0
 10
207.60864789039479
 20
111.6771983745591
 30
0.0
  0
VERTEX
  5
C18
  8
0
 10
207.6200474568227
 20
111.6831038353086
 30
0.0
  0
VERTEX
  5
C19
  8
0
 10
207.63134492433011
 20
111.6891113949786
 30
0.0
  0
VERTEX
  5
C1A
  8
0
 10
207.64253585383381
 20
111.69522401295811
 30
0.0
  0
VERTEX
  5
C1B
  8
0
 10
207.6536158062498
 20
111.70144760802511
 30
0.0
  0
VERTEX
  5
C1C
  8
0
 10
207.6645803424947
 20
111.7077836598741
 30
0.0
  0
VERTEX
  5
C1D
  8
0
 10
207.6754250234853
 20
111.71423808728311
 30
0.0
  0
VERTEX
  5
C1E
  8
0
 10
207.68614393044319
 20
111.72081532933559
 30
0.0
  0
VERTEX
  5
C1F
  8
0
 10
207.69673410397971
 20
111.7275198251151
 30
0.0
  0
VERTEX
  5
C20
  8
0
 10
207.70719110501119
 20
111.7343560137051
 30
0.0
  0
VERTEX
  5
C21
  8
0
 10
207.7175104944541
 20
111.74132833418911
 30
0.0
  0
VERTEX
  5
C22
  8
0
 10
207.7276863535308
 20
111.74843974595611
 30
0.0
  0
VERTEX
  5
C23
  8
0
 10
207.73771424315731
 20
111.75569616778409
 30
0.0
  0
VERTEX
  5
C24
  8
0
 10
207.74759120394481
 20
111.7631020387566
 30
0.0
  0
VERTEX
  5
C25
  8
0
 10
207.7573113171153
 20
111.7706603182626
 30
0.0
  0
VERTEX
  5
C26
  8
0
 10
207.76687014358529
 20
111.7783769250801
 30
0.0
  0
VERTEX
  5
C27
  8
0
 10
207.7762647239658
 20
111.7862548185981
 30
0.0
  0
VERTEX
  5
C28
  8
0
 10
207.78548765978431
 20
111.7942999175946
 30
0.0
  0
VERTEX
  5
C29
  8
0
 10
207.7945374713463
 20
111.8025151814586
 30
0.0
  0
VERTEX
  5
C2A
  8
0
 10
207.8034082398737
 20
111.8109050492736
 30
0.0
  0
VERTEX
  5
C2B
  8
0
 10
207.81209404658881
 20
111.81947543981759
 30
0.0
  0
VERTEX
  5
C2C
  8
0
 10
207.82059341179669
 20
111.8282278327851
 30
0.0
  0
VERTEX
  5
C2D
  8
0
 10
207.8288989370252
 20
111.8371696266486
 30
0.0
  0
VERTEX
  5
C2E
  8
0
 10
207.8370076628853
 20
111.8463037807971
 30
0.0
  0
VERTEX
  5
C2F
  8
0
 10
207.84491515029319
 20
111.85563473431409
 30
0.0
  0
VERTEX
  5
C30
  8
0
 10
207.85261548047129
 20
111.865166926283
 30
0.0
  0
VERTEX
  5
C31
  8
0
 10
207.8601056940303
 20
111.8749033160931
 30
0.0
  0
VERTEX
  5
C32
  8
0
 10
207.86737987219229
 20
111.8848513022166
 30
0.0
  0
VERTEX
  5
C33
  8
0
 10
207.87443505556831
 20
111.89501384404259
 30
0.0
  0
VERTEX
  5
C34
  8
0
 10
207.8812653253803
 20
111.90539390096011
 30
0.0
  0
VERTEX
  5
C35
  8
0
 10
207.88786624254479
 20
111.9159973917471
 30
0.0
  0
VERTEX
  5
C36
  8
0
 10
207.89423336797819
 20
111.9268272757926
 30
0.0
  0
VERTEX
  5
C37
  8
0
 10
207.90036374229169
 20
111.9378894718746
 30
0.0
  0
VERTEX
  5
C38
  8
0
 10
207.90625144670719
 20
111.94918841907661
 30
0.0
  0
VERTEX
  5
C39
  8
0
 10
207.91189056244681
 20
111.96072707678761
 30
0.0
  0
VERTEX
  5
C3A
  8
0
 10
207.91727960981561
 20
111.9725113637856
 30
0.0
  0
VERTEX
  5
C3B
  8
0
 10
207.92241119034179
 20
111.98454423945959
 30
0.0
  0
VERTEX
  5
C3C
  8
0
 10
207.92728382433029
 20
111.9968301428931
 30
0.0
  0
VERTEX
  5
C3D
  8
0
 10
207.9318901133087
 20
112.0093749928641
 30
0.0
  0
VERTEX
  5
C3E
  8
0
 10
207.93622709788829
 20
112.0221817487616
 30
0.0
  0
VERTEX
  5
C3F
  8
0
 10
207.9402888592908
 20
112.0352548496691
 30
0.0
  0
VERTEX
  5
C40
  8
0
 10
207.94407243812731
 20
112.04859873467009
 30
0.0
  0
VERTEX
  5
C41
  8
0
 10
207.9475719156197
 20
112.0622178428481
 30
0.0
  0
VERTEX
  5
C42
  8
0
 10
207.9507843323793
 20
112.0761166132866
 30
0.0
  0
VERTEX
  5
C43
  8
0
 10
207.9537052493223
 20
112.0903009647636
 30
0.0
  0
SEQEND
  5
C44
  8
0
  0
ENDSEC
  0
EOF
