  0
SECTION
  2
HEADER
  9
$ACADVER
  1
AC1006
  9
$INSBASE
 10
0.0
 20
0.0
 30
0.0
  9
$EXTMIN
 10
1.0
 20
0.5
  9
$EXTMAX
 10
33.5
 20
21.5
  9
$LIMMIN
 10
0.0
 20
0.0
  9
$LIMMAX
 10
12.0
 20
9.0
  9
$ORTHOMODE
 70
     0
  9
$REGENMODE
 70
     1
  9
$FILLMODE
 70
     1
  9
$QTEXTMODE
 70
     0
  9
$MIRRTEXT
 70
     1
  9
$DRAGMODE
 70
     2
  9
$LTSCALE
 40
1.0
  9
$OSMODE
 70
     0
  9
$ATTMODE
 70
     1
  9
$TEXTSIZE
 40
0.2
  9
$TRACEWID
 40
0.05
  9
$TEXTSTYLE
  7
STANDARD
  9
$CLAYER
  8
0
  9
$CELTYPE
  6
BYLAYER
  9
$CECOLOR
 62
   256
  9
$DIMSCALE
 40
1.0
  9
$DIMASZ
 40
0.18
  9
$DIMEXO
 40
0.0625
  9
$DIMDLI
 40
0.38
  9
$DIMRND
 40
0.0
  9
$DIMDLE
 40
0.0
  9
$DIMEXE
 40
0.18
  9
$DIMTP
 40
0.0
  9
$DIMTM
 40
0.0
  9
$DIMTXT
 40
0.18
  9
$DIMCEN
 40
0.09
  9
$DIMTSZ
 40
0.0
  9
$DIMTOL
 70
     0
  9
$DIMLIM
 70
     0
  9
$DIMTIH
 70
     1
  9
$DIMTOH
 70
     1
  9
$DIMSE1
 70
     0
  9
$DIMSE2
 70
     0
  9
$DIMTAD
 70
     0
  9
$DIMZIN
 70
     0
  9
$DIMBLK
  1

  9
$DIMASO
 70
     1
  9
$DIMSHO
 70
     0
  9
$DIMPOST
  1

  9
$DIMAPOST
  1

  9
$DIMALT
 70
     0
  9
$DIMALTD
 70
     2
  9
$DIMALTF
 40
25.4
  9
$DIMLFAC
 40
1.0
  9
$DIMTOFL
 70
     0
  9
$DIMTVP
 40
0.0
  9
$DIMTIX
 70
     0
  9
$DIMSOXD
 70
     0
  9
$DIMSAH
 70
     0
  9
$DIMBLK1
  1

  9
$DIMBLK2
  1

  9
$LUNITS
 70
     2
  9
$LUPREC
 70
     4
  9
$AXISMODE
 70
     0
  9
$AXISUNIT
 10
0.0
 20
0.0
  9
$SKETCHINC
 40
0.1
  9
$FILLETRAD
 40
0.0
  9
$AUNITS
 70
     0
  9
$AUPREC
 70
     0
  9
$MENU
  1
acad
  9
$ELEVATION
 40
0.0
  9
$THICKNESS
 40
0.0
  9
$LIMCHECK
 70
     0
  9
$BLIPMODE
 70
     1
  9
$CHAMFERA
 40
0.0
  9
$CHAMFERB
 40
0.0
  9
$SKPOLY
 70
     0
  9
$TDCREATE
 40
2449101.3920601970
  9
$TDUPDATE
 40
2449101.3920601970
  9
$TDINDWG
 40
0.0000000116
  9
$TDUSRTIMER
 40
0.0000000116
  9
$USRTIMER
 70
     1
  9
$ANGBASE
 50
0.0
  9
$ANGDIR
 70
     0
  9
$PDMODE
 70
     0
  9
$PDSIZE
 40
0.0
  9
$PLINEWID
 40
0.0
  9
$COORDS
 70
     0
  9
$SPLFRAME
 70
     0
  9
$SPLINETYPE
 70
     6
  9
$SPLINESEGS
 70
     8
  9
$ATTDIA
 70
     0
  9
$ATTREQ
 70
     1
  9
$HANDLING
 70
     0
  9
$HANDSEED
  5
0
  9
$SURFTAB1
 70
     6
  9
$SURFTAB2
 70
     6
  9
$SURFTYPE
 70
     6
  9
$SURFU
 70
     6
  9
$SURFV
 70
     6
  9
$FLATLAND
 70
     1
  9
$UCSNAME
  2

  9
$UCSORG
 10
0.0
 20
0.0
 30
0.0
  9
$UCSXDIR
 10
1.0
 20
0.0
 30
0.0
  9
$UCSYDIR
 10
0.0
 20
1.0
 30
0.0
  9
$USERI1
 70
     0
  9
$USERI2
 70
     0
  9
$USERI3
 70
     0
  9
$USERI4
 70
     0
  9
$USERI5
 70
     0
  9
$USERR1
 40
0.0
  9
$USERR2
 40
0.0
  9
$USERR3
 40
0.0
  9
$USERR4
 40
0.0
  9
$USERR5
 40
0.0
  9
$WORLDVIEW
 70
     1
  9
$VIEWCTR
 10
31.251022
 20
1.633368
  9
$VIEWSIZE
 40
3.266736
  9
$SNAPMODE
 70
     0
  9
$SNAPUNIT
 10
0.0
 20
0.0
  9
$SNAPBASE
 10
0.0
 20
0.0
  9
$SNAPANG
 50
0.0
  9
$SNAPSTYLE
 70
     0
  9
$SNAPISOPAIR
 70
     0
  9
$GRIDMODE
 70
     0
  9
$GRIDUNIT
 10
0.0
 20
0.0
  9
$FASTZOOM
 70
     0
  9
$VIEWDIR
 10
0.0
 20
0.0
 30
1.0
  0
ENDSEC
  0
SECTION
  2
TABLES
  0
TABLE
  2
VPORT
 70
     3
  0
VPORT
  2
*ACTIVE
 70
     0
 10
0.0
 20
0.0
 11
1.0
 21
1.0
 12
31.251022
 22
1.633368
 13
0.0
 23
0.0
 14
0.0
 24
0.0
 15
0.0
 25
0.0
 16
0.0
 26
0.0
 36
1.0
 17
0.0
 27
0.0
 37
0.0
 40
3.266736
 41
1.380723
 42
50.0
 43
0.0
 44
0.0
 50
0.0
 51
0.0
 71
     0
 72
   100
 73
     0
 74
     1
 75
     0
 76
     0
 77
     0
 78
     0
  0
ENDTAB
  0
TABLE
  2
LTYPE
 70
     2
  0
LTYPE
  2
CONTINUOUS
 70
    64
  3
Solid line
 72
    65
 73
     0
 40
0.0
  0
LTYPE
  2
EXTERIOR
 70
    64
  3
- - - - - - - - - - - - - - - - - -
 72
    65
 73
     2
 40
0.15
 49
0.1
 49
-0.05
  0
ENDTAB
  0
TABLE
  2
LAYER
 70
     2
  0
LAYER
  2
0
 70
     0
 62
     7
  6
CONTINUOUS
  0
LAYER
  2
REPLACE
 70
    64
 62
     5
  6
CONTINUOUS
  0
ENDTAB
  0
TABLE
  2
STYLE
 70
     1
  0
STYLE
  2
STANDARD
 70
     0
 40
0.0
 41
1.0
 50
0.0
 71
     0
 42
0.2
  3
txt
  4

  0
ENDTAB
  0
TABLE
  2
VIEW
 70
     0
  0
ENDTAB
  0
TABLE
  2
UCS
 70
     0
  0
ENDTAB
  0
TABLE
  2
DWGMGR
 70
     0
  0
ENDTAB
  0
ENDSEC
  0
SECTION
  2
BLOCKS
  0
ENDSEC
  0
SECTION
  2
ENTITIES
  0
LINE
  8
0
 10
2.45
 20
1.75
 11
2.45
 21
19.0
  0
LINE
  8
0
 10
10.2
 20
1.75
 11
10.2
 21
19.0
  0
LINE
  8
0
 10
3.45
 20
1.75
 11
3.45
 21
19.0
  0
LINE
  8
0
 10
4.95
 20
19.0
 11
4.95
 21
1.75
  0
CIRCLE
  8
0
 10
4.2
 20
18.25
 40
0.15
  0
LINE
  8
0
 10
3.45
 20
19.0
 11
4.95
 21
19.0
  0
TEXT
  8
0
 10
4.175
 20
18.175
 40
0.15
  1
1
 72
     1
 11
4.2
 21
18.175
  0
TEXT
  8
0
 10
4.15
 20
17.425
 40
0.15
  1
2
 72
     1
 11
4.2
 21
17.425
  0
CIRCLE
  8
0
 10
4.2
 20
17.5
 40
0.15
  0
TEXT
  8
0
 10
4.15
 20
16.675
 40
0.15
  1
3
 72
     1
 11
4.2
 21
16.675
  0
CIRCLE
  8
0
 10
4.2
 20
16.75
 40
0.15
  0
TEXT
  8
0
 10
4.15
 20
15.925
 40
0.15
  1
4
 72
     1
 11
4.2
 21
15.925
  0
CIRCLE
  8
0
 10
4.2
 20
16.0
 40
0.15
  0
TEXT
  8
0
 10
4.15
 20
15.175
 40
0.15
  1
5
 72
     1
 11
4.2
 21
15.175
  0
CIRCLE
  8
0
 10
4.2
 20
15.25
 40
0.15
  0
TEXT
  8
0
 10
4.15
 20
14.425
 40
0.15
  1
6
 72
     1
 11
4.2
 21
14.425
  0
CIRCLE
  8
0
 10
4.2
 20
14.5
 40
0.15
  0
TEXT
  8
0
 10
4.15
 20
13.675
 40
0.15
  1
7
 72
     1
 11
4.2
 21
13.675
  0
CIRCLE
  8
0
 10
4.2
 20
13.75
 40
0.15
  0
TEXT
  8
0
 10
4.15
 20
12.925
 40
0.15
  1
8
 72
     1
 11
4.2
 21
12.925
  0
CIRCLE
  8
0
 10
4.2
 20
13.0
 40
0.15
  0
TEXT
  8
0
 10
4.15
 20
12.175
 40
0.15
  1
9
 72
     1
 11
4.2
 21
12.175
  0
CIRCLE
  8
0
 10
4.2
 20
12.25
 40
0.15
  0
TEXT
  8
0
 10
4.1125
 20
11.425
 40
0.15
  1
10
 72
     1
 11
4.2
 21
11.425
  0
CIRCLE
  8
0
 10
4.2
 20
11.5
 40
0.15
  0
TEXT
  8
0
 10
4.125
 20
10.675
 40
0.15
  1
11
 72
     1
 11
4.2
 21
10.675
  0
CIRCLE
  8
0
 10
4.2
 20
10.75
 40
0.15
  0
TEXT
  8
0
 10
4.1
 20
9.925
 40
0.15
  1
12
 72
     1
 11
4.2
 21
9.925
  0
CIRCLE
  8
0
 10
4.2
 20
10.0
 40
0.15
  0
TEXT
  8
0
 10
4.1
 20
9.175
 40
0.15
  1
13
 72
     1
 11
4.2
 21
9.175
  0
CIRCLE
  8
0
 10
4.2
 20
9.25
 40
0.15
  0
TEXT
  8
0
 10
4.1
 20
8.425
 40
0.15
  1
14
 72
     1
 11
4.2
 21
8.425
  0
CIRCLE
  8
0
 10
4.2
 20
8.5
 40
0.15
  0
TEXT
  8
0
 10
4.1
 20
7.675
 40
0.15
  1
15
 72
     1
 11
4.2
 21
7.675
  0
CIRCLE
  8
0
 10
4.2
 20
7.75
 40
0.15
  0
TEXT
  8
0
 10
4.1
 20
6.925
 40
0.15
  1
16
 72
     1
 11
4.2
 21
6.925
  0
CIRCLE
  8
0
 10
4.2
 20
7.0
 40
0.15
  0
TEXT
  8
0
 10
4.1
 20
6.175
 40
0.15
  1
17
 72
     1
 11
4.2
 21
6.175
  0
CIRCLE
  8
0
 10
4.2
 20
6.25
 40
0.15
  0
TEXT
  8
0
 10
4.1
 20
5.425
 40
0.15
  1
18
 72
     1
 11
4.2
 21
5.425
  0
CIRCLE
  8
0
 10
4.2
 20
5.5
 40
0.15
  0
TEXT
  8
0
 10
4.1
 20
4.675
 40
0.15
  1
19
 72
     1
 11
4.2
 21
4.675
  0
CIRCLE
  8
0
 10
4.2
 20
4.75
 40
0.15
  0
TEXT
  8
0
 10
4.0875
 20
3.925
 40
0.15
  1
20
 72
     1
 11
4.2
 21
3.925
  0
CIRCLE
  8
0
 10
4.2
 20
4.0
 40
0.15
  0
LINE
  8
0
 10
2.2
 20
4.0
 11
2.1
 21
4.2
  0
LINE
  8
0
 10
2.1
 20
4.2
 11
1.8
 21
4.2
  0
LINE
  8
0
 10
1.8
 20
4.2
 11
1.7
 21
4.0
  0
LINE
  8
0
 10
1.7
 20
4.0
 11
1.8
 21
3.8
  0
LINE
  8
0
 10
1.8
 20
3.8
 11
2.1
 21
3.8
  0
LINE
  8
0
 10
2.1
 20
3.8
 11
2.2
 21
4.0
  0
TEXT
  8
0
 10
1.877083
 20
4.025
 40
0.125
  1
01
 72
     1
 11
1.95
 21
4.025
  0
TEXT
  8
0
 10
1.85625
 20
3.85
 40
0.125
  1
20
 72
     1
 11
1.95
 21
3.85
  0
LINE
  8
0
 10
2.2
 20
4.75
 11
2.1
 21
4.95
  0
LINE
  8
0
 10
2.1
 20
4.95
 11
1.8
 21
4.95
  0
LINE
  8
0
 10
1.8
 20
4.95
 11
1.7
 21
4.75
  0
LINE
  8
0
 10
1.7
 20
4.75
 11
1.8
 21
4.55
  0
LINE
  8
0
 10
1.8
 20
4.55
 11
2.1
 21
4.55
  0
LINE
  8
0
 10
2.1
 20
4.55
 11
2.2
 21
4.75
  0
TEXT
  8
0
 10
1.877083
 20
4.775
 40
0.125
  1
01
 72
     1
 11
1.95
 21
4.775
  0
TEXT
  8
0
 10
1.866667
 20
4.6
 40
0.125
  1
19
 72
     1
 11
1.95
 21
4.6
  0
LINE
  8
0
 10
2.2
 20
5.5
 11
2.1
 21
5.7
  0
LINE
  8
0
 10
2.1
 20
5.7
 11
1.8
 21
5.7
  0
LINE
  8
0
 10
1.8
 20
5.7
 11
1.7
 21
5.5
  0
LINE
  8
0
 10
1.7
 20
5.5
 11
1.8
 21
5.3
  0
LINE
  8
0
 10
1.8
 20
5.3
 11
2.1
 21
5.3
  0
LINE
  8
0
 10
2.1
 20
5.3
 11
2.2
 21
5.5
  0
TEXT
  8
0
 10
1.877083
 20
5.525
 40
0.125
  1
01
 72
     1
 11
1.95
 21
5.525
  0
TEXT
  8
0
 10
1.866667
 20
5.35
 40
0.125
  1
18
 72
     1
 11
1.95
 21
5.35
  0
LINE
  8
0
 10
2.2
 20
6.25
 11
2.1
 21
6.45
  0
LINE
  8
0
 10
2.1
 20
6.45
 11
1.8
 21
6.45
  0
LINE
  8
0
 10
1.8
 20
6.45
 11
1.7
 21
6.25
  0
LINE
  8
0
 10
1.7
 20
6.25
 11
1.8
 21
6.05
  0
LINE
  8
0
 10
1.8
 20
6.05
 11
2.1
 21
6.05
  0
LINE
  8
0
 10
2.1
 20
6.05
 11
2.2
 21
6.25
  0
TEXT
  8
0
 10
1.877083
 20
6.275
 40
0.125
  1
01
 72
     1
 11
1.95
 21
6.275
  0
TEXT
  8
0
 10
1.866667
 20
6.1
 40
0.125
  1
17
 72
     1
 11
1.95
 21
6.1
  0
LINE
  8
0
 10
2.2
 20
7.0
 11
2.1
 21
7.2
  0
LINE
  8
0
 10
2.1
 20
7.2
 11
1.8
 21
7.2
  0
LINE
  8
0
 10
1.8
 20
7.2
 11
1.7
 21
7.0
  0
LINE
  8
0
 10
1.7
 20
7.0
 11
1.8
 21
6.8
  0
LINE
  8
0
 10
1.8
 20
6.8
 11
2.1
 21
6.8
  0
LINE
  8
0
 10
2.1
 20
6.8
 11
2.2
 21
7.0
  0
TEXT
  8
0
 10
1.877083
 20
7.025
 40
0.125
  1
01
 72
     1
 11
1.95
 21
7.025
  0
TEXT
  8
0
 10
1.866667
 20
6.85
 40
0.125
  1
16
 72
     1
 11
1.95
 21
6.85
  0
LINE
  8
0
 10
2.2
 20
7.75
 11
2.1
 21
7.95
  0
LINE
  8
0
 10
2.1
 20
7.95
 11
1.8
 21
7.95
  0
LINE
  8
0
 10
1.8
 20
7.95
 11
1.7
 21
7.75
  0
LINE
  8
0
 10
1.7
 20
7.75
 11
1.8
 21
7.55
  0
LINE
  8
0
 10
1.8
 20
7.55
 11
2.1
 21
7.55
  0
LINE
  8
0
 10
2.1
 20
7.55
 11
2.2
 21
7.75
  0
TEXT
  8
0
 10
1.877083
 20
7.775
 40
0.125
  1
01
 72
     1
 11
1.95
 21
7.775
  0
TEXT
  8
0
 10
1.866667
 20
7.6
 40
0.125
  1
15
 72
     1
 11
1.95
 21
7.6
  0
LINE
  8
0
 10
2.2
 20
8.5
 11
2.1
 21
8.7
  0
LINE
  8
0
 10
2.1
 20
8.7
 11
1.8
 21
8.7
  0
LINE
  8
0
 10
1.8
 20
8.7
 11
1.7
 21
8.5
  0
LINE
  8
0
 10
1.7
 20
8.5
 11
1.8
 21
8.3
  0
LINE
  8
0
 10
1.8
 20
8.3
 11
2.1
 21
8.3
  0
LINE
  8
0
 10
2.1
 20
8.3
 11
2.2
 21
8.5
  0
TEXT
  8
0
 10
1.877083
 20
8.525
 40
0.125
  1
01
 72
     1
 11
1.95
 21
8.525
  0
TEXT
  8
0
 10
1.866667
 20
8.35
 40
0.125
  1
14
 72
     1
 11
1.95
 21
8.35
  0
LINE
  8
0
 10
2.2
 20
9.25
 11
2.1
 21
9.45
  0
LINE
  8
0
 10
2.1
 20
9.45
 11
1.8
 21
9.45
  0
LINE
  8
0
 10
1.8
 20
9.45
 11
1.7
 21
9.25
  0
LINE
  8
0
 10
1.7
 20
9.25
 11
1.8
 21
9.05
  0
LINE
  8
0
 10
1.8
 20
9.05
 11
2.1
 21
9.05
  0
LINE
  8
0
 10
2.1
 20
9.05
 11
2.2
 21
9.25
  0
TEXT
  8
0
 10
1.877083
 20
9.275
 40
0.125
  1
01
 72
     1
 11
1.95
 21
9.275
  0
TEXT
  8
0
 10
1.866667
 20
9.1
 40
0.125
  1
13
 72
     1
 11
1.95
 21
9.1
  0
LINE
  8
0
 10
2.2
 20
10.0
 11
2.1
 21
10.2
  0
LINE
  8
0
 10
2.1
 20
10.2
 11
1.8
 21
10.2
  0
LINE
  8
0
 10
1.8
 20
10.2
 11
1.7
 21
10.0
  0
LINE
  8
0
 10
1.7
 20
10.0
 11
1.8
 21
9.8
  0
LINE
  8
0
 10
1.8
 20
9.8
 11
2.1
 21
9.8
  0
LINE
  8
0
 10
2.1
 20
9.8
 11
2.2
 21
10.0
  0
TEXT
  8
0
 10
1.877083
 20
10.025
 40
0.125
  1
01
 72
     1
 11
1.95
 21
10.025
  0
TEXT
  8
0
 10
1.866667
 20
9.85
 40
0.125
  1
12
 72
     1
 11
1.95
 21
9.85
  0
LINE
  8
0
 10
2.2
 20
10.75
 11
2.1
 21
10.95
  0
LINE
  8
0
 10
2.1
 20
10.95
 11
1.8
 21
10.95
  0
LINE
  8
0
 10
1.8
 20
10.95
 11
1.7
 21
10.75
  0
LINE
  8
0
 10
1.7
 20
10.75
 11
1.8
 21
10.55
  0
LINE
  8
0
 10
1.8
 20
10.55
 11
2.1
 21
10.55
  0
LINE
  8
0
 10
2.1
 20
10.55
 11
2.2
 21
10.75
  0
TEXT
  8
0
 10
1.877083
 20
10.775
 40
0.125
  1
01
 72
     1
 11
1.95
 21
10.775
  0
TEXT
  8
0
 10
1.8875
 20
10.6
 40
0.125
  1
11
 72
     1
 11
1.95
 21
10.6
  0
LINE
  8
0
 10
2.2
 20
11.5
 11
2.1
 21
11.7
  0
LINE
  8
0
 10
2.1
 20
11.7
 11
1.8
 21
11.7
  0
LINE
  8
0
 10
1.8
 20
11.7
 11
1.7
 21
11.5
  0
LINE
  8
0
 10
1.7
 20
11.5
 11
1.8
 21
11.3
  0
LINE
  8
0
 10
1.8
 20
11.3
 11
2.1
 21
11.3
  0
LINE
  8
0
 10
2.1
 20
11.3
 11
2.2
 21
11.5
  0
TEXT
  8
0
 10
1.877083
 20
11.525
 40
0.125
  1
01
 72
     1
 11
1.95
 21
11.525
  0
TEXT
  8
0
 10
1.877083
 20
11.35
 40
0.125
  1
10
 72
     1
 11
1.95
 21
11.35
  0
LINE
  8
0
 10
2.2
 20
12.25
 11
2.1
 21
12.45
  0
LINE
  8
0
 10
2.1
 20
12.45
 11
1.8
 21
12.45
  0
LINE
  8
0
 10
1.8
 20
12.45
 11
1.7
 21
12.25
  0
LINE
  8
0
 10
1.7
 20
12.25
 11
1.8
 21
12.05
  0
LINE
  8
0
 10
1.8
 20
12.05
 11
2.1
 21
12.05
  0
LINE
  8
0
 10
2.1
 20
12.05
 11
2.2
 21
12.25
  0
TEXT
  8
0
 10
1.877083
 20
12.275
 40
0.125
  1
01
 72
     1
 11
1.95
 21
12.275
  0
TEXT
  8
0
 10
1.85625
 20
12.1
 40
0.125
  1
09
 72
     1
 11
1.95
 21
12.1
  0
LINE
  8
0
 10
2.2
 20
13.0
 11
2.1
 21
13.2
  0
LINE
  8
0
 10
2.1
 20
13.2
 11
1.8
 21
13.2
  0
LINE
  8
0
 10
1.8
 20
13.2
 11
1.7
 21
13.0
  0
LINE
  8
0
 10
1.7
 20
13.0
 11
1.8
 21
12.8
  0
LINE
  8
0
 10
1.8
 20
12.8
 11
2.1
 21
12.8
  0
LINE
  8
0
 10
2.1
 20
12.8
 11
2.2
 21
13.0
  0
TEXT
  8
0
 10
1.877083
 20
13.025
 40
0.125
  1
01
 72
     1
 11
1.95
 21
13.025
  0
TEXT
  8
0
 10
1.85625
 20
12.85
 40
0.125
  1
08
 72
     1
 11
1.95
 21
12.85
  0
LINE
  8
0
 10
2.2
 20
13.75
 11
2.1
 21
13.95
  0
LINE
  8
0
 10
2.1
 20
13.95
 11
1.8
 21
13.95
  0
LINE
  8
0
 10
1.8
 20
13.95
 11
1.7
 21
13.75
  0
LINE
  8
0
 10
1.7
 20
13.75
 11
1.8
 21
13.55
  0
LINE
  8
0
 10
1.8
 20
13.55
 11
2.1
 21
13.55
  0
LINE
  8
0
 10
2.1
 20
13.55
 11
2.2
 21
13.75
  0
TEXT
  8
0
 10
1.877083
 20
13.775
 40
0.125
  1
01
 72
     1
 11
1.95
 21
13.775
  0
TEXT
  8
0
 10
1.85625
 20
13.6
 40
0.125
  1
07
 72
     1
 11
1.95
 21
13.6
  0
LINE
  8
0
 10
2.2
 20
14.5
 11
2.1
 21
14.7
  0
LINE
  8
0
 10
2.1
 20
14.7
 11
1.8
 21
14.7
  0
LINE
  8
0
 10
1.8
 20
14.7
 11
1.7
 21
14.5
  0
LINE
  8
0
 10
1.7
 20
14.5
 11
1.8
 21
14.3
  0
LINE
  8
0
 10
1.8
 20
14.3
 11
2.1
 21
14.3
  0
LINE
  8
0
 10
2.1
 20
14.3
 11
2.2
 21
14.5
  0
TEXT
  8
0
 10
1.877083
 20
14.525
 40
0.125
  1
01
 72
     1
 11
1.95
 21
14.525
  0
TEXT
  8
0
 10
1.85625
 20
14.35
 40
0.125
  1
06
 72
     1
 11
1.95
 21
14.35
  0
LINE
  8
0
 10
2.2
 20
15.25
 11
2.1
 21
15.45
  0
LINE
  8
0
 10
2.1
 20
15.45
 11
1.8
 21
15.45
  0
LINE
  8
0
 10
1.8
 20
15.45
 11
1.7
 21
15.25
  0
LINE
  8
0
 10
1.7
 20
15.25
 11
1.8
 21
15.05
  0
LINE
  8
0
 10
1.8
 20
15.05
 11
2.1
 21
15.05
  0
LINE
  8
0
 10
2.1
 20
15.05
 11
2.2
 21
15.25
  0
TEXT
  8
0
 10
1.877083
 20
15.275
 40
0.125
  1
01
 72
     1
 11
1.95
 21
15.275
  0
TEXT
  8
0
 10
1.85625
 20
15.1
 40
0.125
  1
05
 72
     1
 11
1.95
 21
15.1
  0
LINE
  8
0
 10
2.2
 20
16.0
 11
2.1
 21
16.2
  0
LINE
  8
0
 10
2.1
 20
16.2
 11
1.8
 21
16.2
  0
LINE
  8
0
 10
1.8
 20
16.2
 11
1.7
 21
16.0
  0
LINE
  8
0
 10
1.7
 20
16.0
 11
1.8
 21
15.8
  0
LINE
  8
0
 10
1.8
 20
15.8
 11
2.1
 21
15.8
  0
LINE
  8
0
 10
2.1
 20
15.8
 11
2.2
 21
16.0
  0
TEXT
  8
0
 10
1.877083
 20
16.025
 40
0.125
  1
01
 72
     1
 11
1.95
 21
16.025
  0
TEXT
  8
0
 10
1.85625
 20
15.85
 40
0.125
  1
04
 72
     1
 11
1.95
 21
15.85
  0
LINE
  8
0
 10
2.2
 20
16.75
 11
2.1
 21
16.95
  0
LINE
  8
0
 10
2.1
 20
16.95
 11
1.8
 21
16.95
  0
LINE
  8
0
 10
1.8
 20
16.95
 11
1.7
 21
16.75
  0
LINE
  8
0
 10
1.7
 20
16.75
 11
1.8
 21
16.55
  0
LINE
  8
0
 10
1.8
 20
16.55
 11
2.1
 21
16.55
  0
LINE
  8
0
 10
2.1
 20
16.55
 11
2.2
 21
16.75
  0
TEXT
  8
0
 10
1.877083
 20
16.775
 40
0.125
  1
01
 72
     1
 11
1.95
 21
16.775
  0
TEXT
  8
0
 10
1.85625
 20
16.6
 40
0.125
  1
03
 72
     1
 11
1.95
 21
16.6
  0
LINE
  8
0
 10
2.2
 20
17.5
 11
2.1
 21
17.7
  0
LINE
  8
0
 10
2.1
 20
17.7
 11
1.8
 21
17.7
  0
LINE
  8
0
 10
1.8
 20
17.7
 11
1.7
 21
17.5
  0
LINE
  8
0
 10
1.7
 20
17.5
 11
1.8
 21
17.3
  0
LINE
  8
0
 10
1.8
 20
17.3
 11
2.1
 21
17.3
  0
LINE
  8
0
 10
2.1
 20
17.3
 11
2.2
 21
17.5
  0
TEXT
  8
0
 10
1.877083
 20
17.525
 40
0.125
  1
01
 72
     1
 11
1.95
 21
17.525
  0
TEXT
  8
0
 10
1.85625
 20
17.35
 40
0.125
  1
02
 72
     1
 11
1.95
 21
17.35
  0
LINE
  8
0
 10
2.2
 20
18.25
 11
2.1
 21
18.45
  0
LINE
  8
0
 10
2.1
 20
18.45
 11
1.8
 21
18.45
  0
LINE
  8
0
 10
1.8
 20
18.45
 11
1.7
 21
18.25
  0
LINE
  8
0
 10
1.7
 20
18.25
 11
1.8
 21
18.05
  0
LINE
  8
0
 10
1.8
 20
18.05
 11
2.1
 21
18.05
  0
LINE
  8
0
 10
2.1
 20
18.05
 11
2.2
 21
18.25
  0
TEXT
  8
0
 10
1.877083
 20
18.275
 40
0.125
  1
01
 72
     1
 11
1.95
 21
18.275
  0
TEXT
  8
0
 10
1.877083
 20
18.1
 40
0.125
  1
01
 72
     1
 11
1.95
 21
18.1
  0
LINE
  8
0
 10
2.2
 20
19.0
 11
2.1
 21
19.2
  0
LINE
  8
0
 10
2.1
 20
19.2
 11
1.8
 21
19.2
  0
LINE
  8
0
 10
1.8
 20
19.2
 11
1.7
 21
19.0
  0
LINE
  8
0
 10
1.7
 20
19.0
 11
1.8
 21
18.8
  0
LINE
  8
0
 10
1.8
 20
18.8
 11
2.1
 21
18.8
  0
LINE
  8
0
 10
2.1
 20
18.8
 11
2.2
 21
19.0
  0
TEXT
  8
0
 10
1.877083
 20
19.025
 40
0.125
  1
01
 72
     1
 11
1.95
 21
19.025
  0
TEXT
  8
0
 10
1.866667
 20
18.85
 40
0.125
  1
00
 72
     1
 11
1.95
 21
18.85
  0
TEXT
  8
0
 10
3.2
 20
20.5
 40
0.2
  1
DROP
  0
TEXT
  8
0
 10
5.2
 20
20.5
 40
0.2
  1
RACK
  0
TEXT
  8
0
 10
7.2
 20
20.5
 40
0.2
  1
SLOT
  0
TEXT
  8
REPLACE
 10
4.2
 20
20.5
 40
0.2
  1
/DROP/
  0
TEXT
  8
REPLACE
 10
6.2
 20
20.5
 40
0.2
  1
/RACK/
  0
TEXT
  8
REPLACE
 10
8.2
 20
20.5
 40
0.2
  1
/SLOT/
  0
TEXT
  8
0
 10
1.866667
 20
3.1
 40
0.125
  1
21
 72
     1
 11
1.95
 21
3.1
  0
TEXT
  8
0
 10
1.877083
 20
3.275
 40
0.125
  1
01
 72
     1
 11
1.95
 21
3.275
  0
LINE
  8
0
 10
2.1
 20
3.05
 11
2.2
 21
3.25
  0
LINE
  8
0
 10
1.8
 20
3.05
 11
2.1
 21
3.05
  0
LINE
  8
0
 10
1.7
 20
3.25
 11
1.8
 21
3.05
  0
LINE
  8
0
 10
1.8
 20
3.45
 11
1.7
 21
3.25
  0
LINE
  8
0
 10
2.1
 20
3.45
 11
1.8
 21
3.45
  0
LINE
  8
0
 10
2.2
 20
3.25
 11
2.1
 21
3.45
  0
TEXT
  8
0
 10
1.845833
 20
2.35
 40
0.125
  1
22
 72
     1
 11
1.95
 21
2.35
  0
TEXT
  8
0
 10
1.877083
 20
2.525
 40
0.125
  1
01
 72
     1
 11
1.95
 21
2.525
  0
LINE
  8
0
 10
2.1
 20
2.3
 11
2.2
 21
2.5
  0
LINE
  8
0
 10
1.8
 20
2.3
 11
2.1
 21
2.3
  0
LINE
  8
0
 10
1.7
 20
2.5
 11
1.8
 21
2.3
  0
LINE
  8
0
 10
1.8
 20
2.7
 11
1.7
 21
2.5
  0
LINE
  8
0
 10
2.1
 20
2.7
 11
1.8
 21
2.7
  0
LINE
  8
0
 10
2.2
 20
2.5
 11
2.1
 21
2.7
  0
CIRCLE
  8
0
 10
4.2
 20
2.5
 40
0.15
  0
TEXT
  8
0
 10
4.075
 20
2.425
 40
0.15
  1
22
 72
     1
 11
4.2
 21
2.425
  0
CIRCLE
  8
0
 10
4.2
 20
3.25
 40
0.15
  0
TEXT
  8
0
 10
4.1
 20
3.175
 40
0.15
  1
21
 72
     1
 11
4.2
 21
3.175
  0
LINE
  8
0
 10
4.95
 20
1.75
 11
3.45
 21
1.75
  0
TEXT
  8
0
 10
2.366667
 20
19.05
 40
0.125
  1
41
 72
     1
 11
2.45
 21
19.05
  0
TEXT
  8
0
 10
2.366667
 20
19.225
 40
0.125
  1
00
 72
     1
 11
2.45
 21
19.225
  0
LINE
  8
0
 10
2.6
 20
19.0
 11
2.7
 21
19.2
  0
LINE
  8
0
 10
2.3
 20
19.0
 11
2.6
 21
19.0
  0
LINE
  8
0
 10
2.2
 20
19.2
 11
2.3
 21
19.0
  0
LINE
  8
0
 10
2.3
 20
19.4
 11
2.2
 21
19.2
  0
LINE
  8
0
 10
2.6
 20
19.4
 11
2.3
 21
19.4
  0
LINE
  8
0
 10
2.7
 20
19.2
 11
2.6
 21
19.4
  0
LINE
  8
0
 10
10.45
 20
19.2
 11
10.35
 21
19.4
  0
LINE
  8
0
 10
10.35
 20
19.4
 11
10.05
 21
19.4
  0
LINE
  8
0
 10
10.05
 20
19.4
 11
9.95
 21
19.2
  0
LINE
  8
0
 10
9.95
 20
19.2
 11
10.05
 21
19.0
  0
LINE
  8
0
 10
10.05
 20
19.0
 11
10.35
 21
19.0
  0
LINE
  8
0
 10
10.35
 20
19.0
 11
10.45
 21
19.2
  0
TEXT
  8
0
 10
10.116667
 20
19.225
 40
0.125
  1
00
 72
     1
 11
10.2
 21
19.225
  0
TEXT
  8
0
 10
10.116667
 20
19.05
 40
0.125
  1
41
 72
     1
 11
10.2
 21
19.05
  0
LINE
  8
0
 10
2.7
 20
1.55
 11
2.6
 21
1.75
  0
LINE
  8
0
 10
2.6
 20
1.75
 11
2.3
 21
1.75
  0
LINE
  8
0
 10
2.3
 20
1.75
 11
2.2
 21
1.55
  0
LINE
  8
0
 10
2.2
 20
1.55
 11
2.3
 21
1.35
  0
LINE
  8
0
 10
2.3
 20
1.35
 11
2.6
 21
1.35
  0
LINE
  8
0
 10
2.6
 20
1.35
 11
2.7
 21
1.55
  0
TEXT
  8
0
 10
2.377083
 20
1.575
 40
0.125
  1
01
 72
     1
 11
2.45
 21
1.575
  0
TEXT
  8
0
 10
2.345833
 20
1.4
 40
0.125
  1
23
 72
     1
 11
2.45
 21
1.4
  0
TEXT
  8
0
 10
10.095833
 20
1.4
 40
0.125
  1
23
 72
     1
 11
10.2
 21
1.4
  0
TEXT
  8
0
 10
10.127083
 20
1.575
 40
0.125
  1
01
 72
     1
 11
10.2
 21
1.575
  0
LINE
  8
0
 10
10.35
 20
1.35
 11
10.45
 21
1.55
  0
LINE
  8
0
 10
10.05
 20
1.35
 11
10.35
 21
1.35
  0
LINE
  8
0
 10
9.95
 20
1.55
 11
10.05
 21
1.35
  0
LINE
  8
0
 10
10.05
 20
1.75
 11
9.95
 21
1.55
  0
LINE
  8
0
 10
10.35
 20
1.75
 11
10.05
 21
1.75
  0
LINE
  8
0
 10
10.45
 20
1.55
 11
10.35
 21
1.75
  0
TEXT
  8
0
 10
3.2
 20
20.0
 40
0.2
  1
DAP-216 - 24 VDC 16 Point Output Module
  0
LINE
  8
0
 10
4.05
 20
18.25
 11
2.45
 21
18.25
  0
CIRCLE
  8
0
 10
2.45
 20
18.25
 40
0.025
  0
LINE
  8
0
 10
2.475
 20
18.25
 11
2.425
 21
18.25
  0
LINE
  8
0
 10
2.474206
 20
18.25625
 11
2.425794
 21
18.25625
  0
LINE
  8
0
 10
2.471651
 20
18.2625
 11
2.428349
 21
18.2625
  0
LINE
  8
0
 10
2.466536
 20
18.26875
 11
2.433464
 21
18.26875
  0
LINE
  8
0
 10
2.474206
 20
18.24375
 11
2.425794
 21
18.24375
  0
LINE
  8
0
 10
2.471651
 20
18.2375
 11
2.428349
 21
18.2375
  0
LINE
  8
0
 10
2.466536
 20
18.23125
 11
2.433464
 21
18.23125
  0
LINE
  8
0
 10
2.45625
 20
18.225794
 11
2.45625
 21
18.274206
  0
LINE
  8
0
 10
2.4625
 20
18.228349
 11
2.4625
 21
18.271651
  0
LINE
  8
0
 10
2.46875
 20
18.233464
 11
2.46875
 21
18.266536
  0
LINE
  8
0
 10
2.45
 20
18.225
 11
2.45
 21
18.275
  0
LINE
  8
0
 10
2.44375
 20
18.225794
 11
2.44375
 21
18.274206
  0
LINE
  8
0
 10
2.4375
 20
18.228349
 11
2.4375
 21
18.271651
  0
LINE
  8
0
 10
2.43125
 20
18.233464
 11
2.43125
 21
18.266536
  0
LINE
  8
0
 10
4.05
 20
10.0
 11
2.45
 21
10.0
  0
CIRCLE
  8
0
 10
2.45
 20
10.0
 40
0.025
  0
LINE
  8
0
 10
2.475
 20
10.0
 11
2.425
 21
10.0
  0
LINE
  8
0
 10
2.474206
 20
10.00625
 11
2.425794
 21
10.00625
  0
LINE
  8
0
 10
2.471651
 20
10.0125
 11
2.428349
 21
10.0125
  0
LINE
  8
0
 10
2.466536
 20
10.01875
 11
2.433464
 21
10.01875
  0
LINE
  8
0
 10
2.474206
 20
9.99375
 11
2.425794
 21
9.99375
  0
LINE
  8
0
 10
2.471651
 20
9.9875
 11
2.428349
 21
9.9875
  0
LINE
  8
0
 10
2.466536
 20
9.98125
 11
2.433464
 21
9.98125
  0
LINE
  8
0
 10
2.45625
 20
9.975794
 11
2.45625
 21
10.024206
  0
LINE
  8
0
 10
2.4625
 20
9.978349
 11
2.4625
 21
10.021651
  0
LINE
  8
0
 10
2.46875
 20
9.983464
 11
2.46875
 21
10.016536
  0
LINE
  8
0
 10
2.45
 20
9.975
 11
2.45
 21
10.025
  0
LINE
  8
0
 10
2.44375
 20
9.975794
 11
2.44375
 21
10.024206
  0
LINE
  8
0
 10
2.4375
 20
9.978349
 11
2.4375
 21
10.021651
  0
LINE
  8
0
 10
2.43125
 20
9.983464
 11
2.43125
 21
10.016536
  0
LINE
  8
0
 10
4.35
 20
10.75
 11
10.2
 21
10.75
  0
CIRCLE
  8
0
 10
10.2
 20
10.75
 40
0.025
  0
LINE
  8
0
 10
10.225
 20
10.75
 11
10.175
 21
10.75
  0
LINE
  8
0
 10
10.224206
 20
10.75625
 11
10.175794
 21
10.75625
  0
LINE
  8
0
 10
10.221651
 20
10.7625
 11
10.178349
 21
10.7625
  0
LINE
  8
0
 10
10.216536
 20
10.76875
 11
10.183464
 21
10.76875
  0
LINE
  8
0
 10
10.224206
 20
10.74375
 11
10.175794
 21
10.74375
  0
LINE
  8
0
 10
10.221651
 20
10.7375
 11
10.178349
 21
10.7375
  0
LINE
  8
0
 10
10.216536
 20
10.73125
 11
10.183464
 21
10.73125
  0
LINE
  8
0
 10
10.2
 20
10.725
 11
10.2
 21
10.775
  0
LINE
  8
0
 10
10.20625
 20
10.725794
 11
10.20625
 21
10.774206
  0
LINE
  8
0
 10
10.2125
 20
10.728349
 11
10.2125
 21
10.771651
  0
LINE
  8
0
 10
10.21875
 20
10.733464
 11
10.21875
 21
10.766536
  0
LINE
  8
0
 10
10.19375
 20
10.725794
 11
10.19375
 21
10.774206
  0
LINE
  8
0
 10
10.1875
 20
10.728349
 11
10.1875
 21
10.771651
  0
LINE
  8
0
 10
10.18125
 20
10.733464
 11
10.18125
 21
10.766536
  0
LINE
  8
0
 10
4.35
 20
2.5
 11
10.2
 21
2.5
  0
CIRCLE
  8
0
 10
10.2
 20
2.5
 40
0.025
  0
LINE
  8
0
 10
10.225
 20
2.5
 11
10.175
 21
2.5
  0
LINE
  8
0
 10
10.224206
 20
2.50625
 11
10.175794
 21
2.50625
  0
LINE
  8
0
 10
10.221651
 20
2.5125
 11
10.178349
 21
2.5125
  0
LINE
  8
0
 10
10.216536
 20
2.51875
 11
10.183464
 21
2.51875
  0
LINE
  8
0
 10
10.224206
 20
2.49375
 11
10.175794
 21
2.49375
  0
LINE
  8
0
 10
10.221651
 20
2.4875
 11
10.178349
 21
2.4875
  0
LINE
  8
0
 10
10.216536
 20
2.48125
 11
10.183464
 21
2.48125
  0
LINE
  8
0
 10
10.2
 20
2.475
 11
10.2
 21
2.525
  0
LINE
  8
0
 10
10.20625
 20
2.475794
 11
10.20625
 21
2.524206
  0
LINE
  8
0
 10
10.2125
 20
2.478349
 11
10.2125
 21
2.521651
  0
LINE
  8
0
 10
10.21875
 20
2.483464
 11
10.21875
 21
2.516536
  0
LINE
  8
0
 10
10.19375
 20
2.475794
 11
10.19375
 21
2.524206
  0
LINE
  8
0
 10
10.1875
 20
2.478349
 11
10.1875
 21
2.521651
  0
LINE
  8
0
 10
10.18125
 20
2.483464
 11
10.18125
 21
2.516536
  0
LINE
  8
0
 10
4.8
 20
17.1
 11
3.6
 21
17.1
  0
LINE
  8
0
 10
4.8
 20
16.925
 11
4.8
 21
17.1
  0
LINE
  8
0
 10
3.6
 20
16.925
 11
4.8
 21
16.925
  0
LINE
  8
0
 10
3.6
 20
17.1
 11
3.6
 21
16.925
  0
LINE
  8
0
 10
4.35
 20
16.75
 11
8.0
 21
16.75
  0
CIRCLE
  8
0
 10
9.8
 20
16.75
 40
0.1
  0
LINE
  8
0
 10
9.729289
 20
16.679289
 11
9.870711
 21
16.820711
  0
CIRCLE
  8
0
 10
8.1
 20
16.75
 40
0.1
  0
LINE
  8
0
 10
8.029289
 20
16.679289
 11
8.170711
 21
16.820711
  0
LINE
  8
0
 10
10.2
 20
16.75
 11
9.9
 21
16.75
  0
CIRCLE
  8
0
 10
10.2
 20
16.75
 40
0.025
  0
LINE
  8
0
 10
10.225
 20
16.75
 11
10.175
 21
16.75
  0
LINE
  8
0
 10
10.224206
 20
16.75625
 11
10.175794
 21
16.75625
  0
LINE
  8
0
 10
10.221651
 20
16.7625
 11
10.178349
 21
16.7625
  0
LINE
  8
0
 10
10.216536
 20
16.76875
 11
10.183464
 21
16.76875
  0
LINE
  8
0
 10
10.224206
 20
16.74375
 11
10.175794
 21
16.74375
  0
LINE
  8
0
 10
10.221651
 20
16.7375
 11
10.178349
 21
16.7375
  0
LINE
  8
0
 10
10.216536
 20
16.73125
 11
10.183464
 21
16.73125
  0
LINE
  8
0
 10
10.2
 20
16.725
 11
10.2
 21
16.775
  0
LINE
  8
0
 10
10.20625
 20
16.725794
 11
10.20625
 21
16.774206
  0
LINE
  8
0
 10
10.2125
 20
16.728349
 11
10.2125
 21
16.771651
  0
LINE
  8
0
 10
10.21875
 20
16.733464
 11
10.21875
 21
16.766536
  0
LINE
  8
0
 10
10.19375
 20
16.725794
 11
10.19375
 21
16.774206
  0
LINE
  8
0
 10
10.1875
 20
16.728349
 11
10.1875
 21
16.771651
  0
LINE
  8
0
 10
10.18125
 20
16.733464
 11
10.18125
 21
16.766536
  0
TEXT
  8
REPLACE
 10
3.772917
 20
16.95
 40
0.125
  1
/A1-O01/
 72
     1
 11
4.2
 21
16.95
  0
TEXT
  8
REPLACE
 10
10.7
 20
16.75
 40
0.125
  1
/D12-O01/
  0
TEXT
  8
REPLACE
 10
10.7
 20
16.575
 40
0.125
  1
/D34-O01/
  0
TEXT
  8
REPLACE
 10
8.2
 20
16.75
 40
0.125
  1
/F1-O01/
  0
LINE
  8
0
 10
4.8
 20
16.35
 11
3.6
 21
16.35
  0
LINE
  8
0
 10
4.8
 20
16.175
 11
4.8
 21
16.35
  0
LINE
  8
0
 10
3.6
 20
16.175
 11
4.8
 21
16.175
  0
LINE
  8
0
 10
3.6
 20
16.35
 11
3.6
 21
16.175
  0
LINE
  8
0
 10
4.35
 20
16.0
 11
8.0
 21
16.0
  0
CIRCLE
  8
0
 10
9.8
 20
16.0
 40
0.1
  0
LINE
  8
0
 10
9.729289
 20
15.929289
 11
9.870711
 21
16.070711
  0
CIRCLE
  8
0
 10
8.1
 20
16.0
 40
0.1
  0
LINE
  8
0
 10
8.029289
 20
15.929289
 11
8.170711
 21
16.070711
  0
LINE
  8
0
 10
10.2
 20
16.0
 11
9.9
 21
16.0
  0
CIRCLE
  8
0
 10
10.2
 20
16.0
 40
0.025
  0
LINE
  8
0
 10
10.225
 20
16.0
 11
10.175
 21
16.0
  0
LINE
  8
0
 10
10.224206
 20
16.00625
 11
10.175794
 21
16.00625
  0
LINE
  8
0
 10
10.221651
 20
16.0125
 11
10.178349
 21
16.0125
  0
LINE
  8
0
 10
10.216536
 20
16.01875
 11
10.183464
 21
16.01875
  0
LINE
  8
0
 10
10.224206
 20
15.99375
 11
10.175794
 21
15.99375
  0
LINE
  8
0
 10
10.221651
 20
15.9875
 11
10.178349
 21
15.9875
  0
LINE
  8
0
 10
10.216536
 20
15.98125
 11
10.183464
 21
15.98125
  0
LINE
  8
0
 10
10.2
 20
15.975
 11
10.2
 21
16.025
  0
LINE
  8
0
 10
10.20625
 20
15.975794
 11
10.20625
 21
16.024206
  0
LINE
  8
0
 10
10.2125
 20
15.978349
 11
10.2125
 21
16.021651
  0
LINE
  8
0
 10
10.21875
 20
15.983464
 11
10.21875
 21
16.016536
  0
LINE
  8
0
 10
10.19375
 20
15.975794
 11
10.19375
 21
16.024206
  0
LINE
  8
0
 10
10.1875
 20
15.978349
 11
10.1875
 21
16.021651
  0
LINE
  8
0
 10
10.18125
 20
15.983464
 11
10.18125
 21
16.016536
  0
TEXT
  8
REPLACE
 10
3.752083
 20
16.2
 40
0.125
  1
/A1-O02/
 72
     1
 11
4.2
 21
16.2
  0
TEXT
  8
REPLACE
 10
10.7
 20
16.0
 40
0.125
  1
/D12-O02/
  0
TEXT
  8
REPLACE
 10
10.7
 20
15.825
 40
0.125
  1
/D34-O02/
  0
TEXT
  8
REPLACE
 10
8.2
 20
16.0
 40
0.125
  1
/F1-O02/
  0
LINE
  8
0
 10
4.8
 20
15.6
 11
3.6
 21
15.6
  0
LINE
  8
0
 10
4.8
 20
15.425
 11
4.8
 21
15.6
  0
LINE
  8
0
 10
3.6
 20
15.425
 11
4.8
 21
15.425
  0
LINE
  8
0
 10
3.6
 20
15.6
 11
3.6
 21
15.425
  0
LINE
  8
0
 10
4.35
 20
15.25
 11
8.0
 21
15.25
  0
CIRCLE
  8
0
 10
9.8
 20
15.25
 40
0.1
  0
LINE
  8
0
 10
9.729289
 20
15.179289
 11
9.870711
 21
15.320711
  0
CIRCLE
  8
0
 10
8.1
 20
15.25
 40
0.1
  0
LINE
  8
0
 10
8.029289
 20
15.179289
 11
8.170711
 21
15.320711
  0
LINE
  8
0
 10
10.2
 20
15.25
 11
9.9
 21
15.25
  0
CIRCLE
  8
0
 10
10.2
 20
15.25
 40
0.025
  0
LINE
  8
0
 10
10.225
 20
15.25
 11
10.175
 21
15.25
  0
LINE
  8
0
 10
10.224206
 20
15.25625
 11
10.175794
 21
15.25625
  0
LINE
  8
0
 10
10.221651
 20
15.2625
 11
10.178349
 21
15.2625
  0
LINE
  8
0
 10
10.216536
 20
15.26875
 11
10.183464
 21
15.26875
  0
LINE
  8
0
 10
10.224206
 20
15.24375
 11
10.175794
 21
15.24375
  0
LINE
  8
0
 10
10.221651
 20
15.2375
 11
10.178349
 21
15.2375
  0
LINE
  8
0
 10
10.216536
 20
15.23125
 11
10.183464
 21
15.23125
  0
LINE
  8
0
 10
10.2
 20
15.225
 11
10.2
 21
15.275
  0
LINE
  8
0
 10
10.20625
 20
15.225794
 11
10.20625
 21
15.274206
  0
LINE
  8
0
 10
10.2125
 20
15.228349
 11
10.2125
 21
15.271651
  0
LINE
  8
0
 10
10.21875
 20
15.233464
 11
10.21875
 21
15.266536
  0
LINE
  8
0
 10
10.19375
 20
15.225794
 11
10.19375
 21
15.274206
  0
LINE
  8
0
 10
10.1875
 20
15.228349
 11
10.1875
 21
15.271651
  0
LINE
  8
0
 10
10.18125
 20
15.233464
 11
10.18125
 21
15.266536
  0
TEXT
  8
REPLACE
 10
3.752083
 20
15.45
 40
0.125
  1
/A1-O03/
 72
     1
 11
4.2
 21
15.45
  0
TEXT
  8
REPLACE
 10
10.7
 20
15.25
 40
0.125
  1
/D12-O03/
  0
TEXT
  8
REPLACE
 10
10.7
 20
15.075
 40
0.125
  1
/D34-O03/
  0
TEXT
  8
REPLACE
 10
8.2
 20
15.25
 40
0.125
  1
/F1-O03/
  0
LINE
  8
0
 10
4.8
 20
14.85
 11
3.6
 21
14.85
  0
LINE
  8
0
 10
4.8
 20
14.675
 11
4.8
 21
14.85
  0
LINE
  8
0
 10
3.6
 20
14.675
 11
4.8
 21
14.675
  0
LINE
  8
0
 10
3.6
 20
14.85
 11
3.6
 21
14.675
  0
LINE
  8
0
 10
4.35
 20
14.5
 11
8.0
 21
14.5
  0
CIRCLE
  8
0
 10
9.8
 20
14.5
 40
0.1
  0
LINE
  8
0
 10
9.729289
 20
14.429289
 11
9.870711
 21
14.570711
  0
CIRCLE
  8
0
 10
8.1
 20
14.5
 40
0.1
  0
LINE
  8
0
 10
8.029289
 20
14.429289
 11
8.170711
 21
14.570711
  0
LINE
  8
0
 10
10.2
 20
14.5
 11
9.9
 21
14.5
  0
CIRCLE
  8
0
 10
10.2
 20
14.5
 40
0.025
  0
LINE
  8
0
 10
10.225
 20
14.5
 11
10.175
 21
14.5
  0
LINE
  8
0
 10
10.224206
 20
14.50625
 11
10.175794
 21
14.50625
  0
LINE
  8
0
 10
10.221651
 20
14.5125
 11
10.178349
 21
14.5125
  0
LINE
  8
0
 10
10.216536
 20
14.51875
 11
10.183464
 21
14.51875
  0
LINE
  8
0
 10
10.224206
 20
14.49375
 11
10.175794
 21
14.49375
  0
LINE
  8
0
 10
10.221651
 20
14.4875
 11
10.178349
 21
14.4875
  0
LINE
  8
0
 10
10.216536
 20
14.48125
 11
10.183464
 21
14.48125
  0
LINE
  8
0
 10
10.2
 20
14.475
 11
10.2
 21
14.525
  0
LINE
  8
0
 10
10.20625
 20
14.475794
 11
10.20625
 21
14.524206
  0
LINE
  8
0
 10
10.2125
 20
14.478349
 11
10.2125
 21
14.521651
  0
LINE
  8
0
 10
10.21875
 20
14.483464
 11
10.21875
 21
14.516536
  0
LINE
  8
0
 10
10.19375
 20
14.475794
 11
10.19375
 21
14.524206
  0
LINE
  8
0
 10
10.1875
 20
14.478349
 11
10.1875
 21
14.521651
  0
LINE
  8
0
 10
10.18125
 20
14.483464
 11
10.18125
 21
14.516536
  0
TEXT
  8
REPLACE
 10
3.752083
 20
14.7
 40
0.125
  1
/A1-O04/
 72
     1
 11
4.2
 21
14.7
  0
TEXT
  8
REPLACE
 10
10.7
 20
14.5
 40
0.125
  1
/D12-O04/
  0
TEXT
  8
REPLACE
 10
10.7
 20
14.325
 40
0.125
  1
/D34-O04/
  0
TEXT
  8
REPLACE
 10
8.2
 20
14.5
 40
0.125
  1
/F1-O04/
  0
LINE
  8
0
 10
4.8
 20
14.1
 11
3.6
 21
14.1
  0
LINE
  8
0
 10
4.8
 20
13.925
 11
4.8
 21
14.1
  0
LINE
  8
0
 10
3.6
 20
13.925
 11
4.8
 21
13.925
  0
LINE
  8
0
 10
3.6
 20
14.1
 11
3.6
 21
13.925
  0
LINE
  8
0
 10
4.35
 20
13.75
 11
8.0
 21
13.75
  0
CIRCLE
  8
0
 10
9.8
 20
13.75
 40
0.1
  0
LINE
  8
0
 10
9.729289
 20
13.679289
 11
9.870711
 21
13.820711
  0
CIRCLE
  8
0
 10
8.1
 20
13.75
 40
0.1
  0
LINE
  8
0
 10
8.029289
 20
13.679289
 11
8.170711
 21
13.820711
  0
LINE
  8
0
 10
10.2
 20
13.75
 11
9.9
 21
13.75
  0
CIRCLE
  8
0
 10
10.2
 20
13.75
 40
0.025
  0
LINE
  8
0
 10
10.225
 20
13.75
 11
10.175
 21
13.75
  0
LINE
  8
0
 10
10.224206
 20
13.75625
 11
10.175794
 21
13.75625
  0
LINE
  8
0
 10
10.221651
 20
13.7625
 11
10.178349
 21
13.7625
  0
LINE
  8
0
 10
10.216536
 20
13.76875
 11
10.183464
 21
13.76875
  0
LINE
  8
0
 10
10.224206
 20
13.74375
 11
10.175794
 21
13.74375
  0
LINE
  8
0
 10
10.221651
 20
13.7375
 11
10.178349
 21
13.7375
  0
LINE
  8
0
 10
10.216536
 20
13.73125
 11
10.183464
 21
13.73125
  0
LINE
  8
0
 10
10.2
 20
13.725
 11
10.2
 21
13.775
  0
LINE
  8
0
 10
10.20625
 20
13.725794
 11
10.20625
 21
13.774206
  0
LINE
  8
0
 10
10.2125
 20
13.728349
 11
10.2125
 21
13.771651
  0
LINE
  8
0
 10
10.21875
 20
13.733464
 11
10.21875
 21
13.766536
  0
LINE
  8
0
 10
10.19375
 20
13.725794
 11
10.19375
 21
13.774206
  0
LINE
  8
0
 10
10.1875
 20
13.728349
 11
10.1875
 21
13.771651
  0
LINE
  8
0
 10
10.18125
 20
13.733464
 11
10.18125
 21
13.766536
  0
TEXT
  8
REPLACE
 10
3.752083
 20
13.95
 40
0.125
  1
/A1-O05/
 72
     1
 11
4.2
 21
13.95
  0
TEXT
  8
REPLACE
 10
10.7
 20
13.75
 40
0.125
  1
/D12-O05/
  0
TEXT
  8
REPLACE
 10
10.7
 20
13.575
 40
0.125
  1
/D34-O05/
  0
TEXT
  8
REPLACE
 10
8.2
 20
13.75
 40
0.125
  1
/F1-O05/
  0
LINE
  8
0
 10
4.8
 20
13.35
 11
3.6
 21
13.35
  0
LINE
  8
0
 10
4.8
 20
13.175
 11
4.8
 21
13.35
  0
LINE
  8
0
 10
3.6
 20
13.175
 11
4.8
 21
13.175
  0
LINE
  8
0
 10
3.6
 20
13.35
 11
3.6
 21
13.175
  0
LINE
  8
0
 10
4.35
 20
13.0
 11
8.0
 21
13.0
  0
CIRCLE
  8
0
 10
9.8
 20
13.0
 40
0.1
  0
LINE
  8
0
 10
9.729289
 20
12.929289
 11
9.870711
 21
13.070711
  0
CIRCLE
  8
0
 10
8.1
 20
13.0
 40
0.1
  0
LINE
  8
0
 10
8.029289
 20
12.929289
 11
8.170711
 21
13.070711
  0
LINE
  8
0
 10
10.2
 20
13.0
 11
9.9
 21
13.0
  0
CIRCLE
  8
0
 10
10.2
 20
13.0
 40
0.025
  0
LINE
  8
0
 10
10.225
 20
13.0
 11
10.175
 21
13.0
  0
LINE
  8
0
 10
10.224206
 20
13.00625
 11
10.175794
 21
13.00625
  0
LINE
  8
0
 10
10.221651
 20
13.0125
 11
10.178349
 21
13.0125
  0
LINE
  8
0
 10
10.216536
 20
13.01875
 11
10.183464
 21
13.01875
  0
LINE
  8
0
 10
10.224206
 20
12.99375
 11
10.175794
 21
12.99375
  0
LINE
  8
0
 10
10.221651
 20
12.9875
 11
10.178349
 21
12.9875
  0
LINE
  8
0
 10
10.216536
 20
12.98125
 11
10.183464
 21
12.98125
  0
LINE
  8
0
 10
10.2
 20
12.975
 11
10.2
 21
13.025
  0
LINE
  8
0
 10
10.20625
 20
12.975794
 11
10.20625
 21
13.024206
  0
LINE
  8
0
 10
10.2125
 20
12.978349
 11
10.2125
 21
13.021651
  0
LINE
  8
0
 10
10.21875
 20
12.983464
 11
10.21875
 21
13.016536
  0
LINE
  8
0
 10
10.19375
 20
12.975794
 11
10.19375
 21
13.024206
  0
LINE
  8
0
 10
10.1875
 20
12.978349
 11
10.1875
 21
13.021651
  0
LINE
  8
0
 10
10.18125
 20
12.983464
 11
10.18125
 21
13.016536
  0
TEXT
  8
REPLACE
 10
3.752083
 20
13.2
 40
0.125
  1
/A1-O06/
 72
     1
 11
4.2
 21
13.2
  0
TEXT
  8
REPLACE
 10
10.7
 20
13.0
 40
0.125
  1
/D12-O06/
  0
TEXT
  8
REPLACE
 10
10.7
 20
12.825
 40
0.125
  1
/D34-O06/
  0
TEXT
  8
REPLACE
 10
8.2
 20
13.0
 40
0.125
  1
/F1-O06/
  0
LINE
  8
0
 10
4.8
 20
12.6
 11
3.6
 21
12.6
  0
LINE
  8
0
 10
4.8
 20
12.425
 11
4.8
 21
12.6
  0
LINE
  8
0
 10
3.6
 20
12.425
 11
4.8
 21
12.425
  0
LINE
  8
0
 10
3.6
 20
12.6
 11
3.6
 21
12.425
  0
LINE
  8
0
 10
4.35
 20
12.25
 11
8.0
 21
12.25
  0
CIRCLE
  8
0
 10
9.8
 20
12.25
 40
0.1
  0
LINE
  8
0
 10
9.729289
 20
12.179289
 11
9.870711
 21
12.320711
  0
CIRCLE
  8
0
 10
8.1
 20
12.25
 40
0.1
  0
LINE
  8
0
 10
8.029289
 20
12.179289
 11
8.170711
 21
12.320711
  0
LINE
  8
0
 10
10.2
 20
12.25
 11
9.9
 21
12.25
  0
CIRCLE
  8
0
 10
10.2
 20
12.25
 40
0.025
  0
LINE
  8
0
 10
10.225
 20
12.25
 11
10.175
 21
12.25
  0
LINE
  8
0
 10
10.224206
 20
12.25625
 11
10.175794
 21
12.25625
  0
LINE
  8
0
 10
10.221651
 20
12.2625
 11
10.178349
 21
12.2625
  0
LINE
  8
0
 10
10.216536
 20
12.26875
 11
10.183464
 21
12.26875
  0
LINE
  8
0
 10
10.224206
 20
12.24375
 11
10.175794
 21
12.24375
  0
LINE
  8
0
 10
10.221651
 20
12.2375
 11
10.178349
 21
12.2375
  0
LINE
  8
0
 10
10.216536
 20
12.23125
 11
10.183464
 21
12.23125
  0
LINE
  8
0
 10
10.2
 20
12.225
 11
10.2
 21
12.275
  0
LINE
  8
0
 10
10.20625
 20
12.225794
 11
10.20625
 21
12.274206
  0
LINE
  8
0
 10
10.2125
 20
12.228349
 11
10.2125
 21
12.271651
  0
LINE
  8
0
 10
10.21875
 20
12.233464
 11
10.21875
 21
12.266536
  0
LINE
  8
0
 10
10.19375
 20
12.225794
 11
10.19375
 21
12.274206
  0
LINE
  8
0
 10
10.1875
 20
12.228349
 11
10.1875
 21
12.271651
  0
LINE
  8
0
 10
10.18125
 20
12.233464
 11
10.18125
 21
12.266536
  0
TEXT
  8
REPLACE
 10
3.752083
 20
12.45
 40
0.125
  1
/A1-O07/
 72
     1
 11
4.2
 21
12.45
  0
TEXT
  8
REPLACE
 10
10.7
 20
12.25
 40
0.125
  1
/D12-O07/
  0
TEXT
  8
REPLACE
 10
10.7
 20
12.075
 40
0.125
  1
/D34-O07/
  0
TEXT
  8
REPLACE
 10
8.2
 20
12.25
 40
0.125
  1
/F1-O07/
  0
LINE
  8
0
 10
4.8
 20
11.85
 11
3.6
 21
11.85
  0
LINE
  8
0
 10
4.8
 20
11.675
 11
4.8
 21
11.85
  0
LINE
  8
0
 10
3.6
 20
11.675
 11
4.8
 21
11.675
  0
LINE
  8
0
 10
3.6
 20
11.85
 11
3.6
 21
11.675
  0
LINE
  8
0
 10
4.35
 20
11.5
 11
8.0
 21
11.5
  0
CIRCLE
  8
0
 10
9.8
 20
11.5
 40
0.1
  0
LINE
  8
0
 10
9.729289
 20
11.429289
 11
9.870711
 21
11.570711
  0
CIRCLE
  8
0
 10
8.1
 20
11.5
 40
0.1
  0
LINE
  8
0
 10
8.029289
 20
11.429289
 11
8.170711
 21
11.570711
  0
LINE
  8
0
 10
10.2
 20
11.5
 11
9.9
 21
11.5
  0
CIRCLE
  8
0
 10
10.2
 20
11.5
 40
0.025
  0
LINE
  8
0
 10
10.225
 20
11.5
 11
10.175
 21
11.5
  0
LINE
  8
0
 10
10.224206
 20
11.50625
 11
10.175794
 21
11.50625
  0
LINE
  8
0
 10
10.221651
 20
11.5125
 11
10.178349
 21
11.5125
  0
LINE
  8
0
 10
10.216536
 20
11.51875
 11
10.183464
 21
11.51875
  0
LINE
  8
0
 10
10.224206
 20
11.49375
 11
10.175794
 21
11.49375
  0
LINE
  8
0
 10
10.221651
 20
11.4875
 11
10.178349
 21
11.4875
  0
LINE
  8
0
 10
10.216536
 20
11.48125
 11
10.183464
 21
11.48125
  0
LINE
  8
0
 10
10.2
 20
11.475
 11
10.2
 21
11.525
  0
LINE
  8
0
 10
10.20625
 20
11.475794
 11
10.20625
 21
11.524206
  0
LINE
  8
0
 10
10.2125
 20
11.478349
 11
10.2125
 21
11.521651
  0
LINE
  8
0
 10
10.21875
 20
11.483464
 11
10.21875
 21
11.516536
  0
LINE
  8
0
 10
10.19375
 20
11.475794
 11
10.19375
 21
11.524206
  0
LINE
  8
0
 10
10.1875
 20
11.478349
 11
10.1875
 21
11.521651
  0
LINE
  8
0
 10
10.18125
 20
11.483464
 11
10.18125
 21
11.516536
  0
TEXT
  8
REPLACE
 10
3.752083
 20
11.7
 40
0.125
  1
/A1-O08/
 72
     1
 11
4.2
 21
11.7
  0
TEXT
  8
REPLACE
 10
10.7
 20
11.5
 40
0.125
  1
/D12-O08/
  0
TEXT
  8
REPLACE
 10
10.7
 20
11.325
 40
0.125
  1
/D34-O08/
  0
TEXT
  8
REPLACE
 10
8.2
 20
11.5
 40
0.125
  1
/F1-O08/
  0
LINE
  8
0
 10
4.8
 20
8.85
 11
3.6
 21
8.85
  0
LINE
  8
0
 10
4.8
 20
8.675
 11
4.8
 21
8.85
  0
LINE
  8
0
 10
3.6
 20
8.675
 11
4.8
 21
8.675
  0
LINE
  8
0
 10
3.6
 20
8.85
 11
3.6
 21
8.675
  0
LINE
  8
0
 10
4.35
 20
8.5
 11
8.0
 21
8.5
  0
CIRCLE
  8
0
 10
9.8
 20
8.5
 40
0.1
  0
LINE
  8
0
 10
9.729289
 20
8.429289
 11
9.870711
 21
8.570711
  0
CIRCLE
  8
0
 10
8.1
 20
8.5
 40
0.1
  0
LINE
  8
0
 10
8.029289
 20
8.429289
 11
8.170711
 21
8.570711
  0
LINE
  8
0
 10
10.2
 20
8.5
 11
9.9
 21
8.5
  0
CIRCLE
  8
0
 10
10.2
 20
8.5
 40
0.025
  0
LINE
  8
0
 10
10.225
 20
8.5
 11
10.175
 21
8.5
  0
LINE
  8
0
 10
10.224206
 20
8.50625
 11
10.175794
 21
8.50625
  0
LINE
  8
0
 10
10.221651
 20
8.5125
 11
10.178349
 21
8.5125
  0
LINE
  8
0
 10
10.216536
 20
8.51875
 11
10.183464
 21
8.51875
  0
LINE
  8
0
 10
10.224206
 20
8.49375
 11
10.175794
 21
8.49375
  0
LINE
  8
0
 10
10.221651
 20
8.4875
 11
10.178349
 21
8.4875
  0
LINE
  8
0
 10
10.216536
 20
8.48125
 11
10.183464
 21
8.48125
  0
LINE
  8
0
 10
10.2
 20
8.475
 11
10.2
 21
8.525
  0
LINE
  8
0
 10
10.20625
 20
8.475794
 11
10.20625
 21
8.524206
  0
LINE
  8
0
 10
10.2125
 20
8.478349
 11
10.2125
 21
8.521651
  0
LINE
  8
0
 10
10.21875
 20
8.483464
 11
10.21875
 21
8.516536
  0
LINE
  8
0
 10
10.19375
 20
8.475794
 11
10.19375
 21
8.524206
  0
LINE
  8
0
 10
10.1875
 20
8.478349
 11
10.1875
 21
8.521651
  0
LINE
  8
0
 10
10.18125
 20
8.483464
 11
10.18125
 21
8.516536
  0
TEXT
  8
REPLACE
 10
3.752083
 20
8.7
 40
0.125
  1
/A1-O09/
 72
     1
 11
4.2
 21
8.7
  0
TEXT
  8
REPLACE
 10
10.7
 20
8.5
 40
0.125
  1
/D12-O09/
  0
TEXT
  8
REPLACE
 10
10.7
 20
8.325
 40
0.125
  1
/D34-O09/
  0
TEXT
  8
REPLACE
 10
8.2
 20
8.5
 40
0.125
  1
/F1-O09/
  0
LINE
  8
0
 10
4.8
 20
8.1
 11
3.6
 21
8.1
  0
LINE
  8
0
 10
4.8
 20
7.925
 11
4.8
 21
8.1
  0
LINE
  8
0
 10
3.6
 20
7.925
 11
4.8
 21
7.925
  0
LINE
  8
0
 10
3.6
 20
8.1
 11
3.6
 21
7.925
  0
LINE
  8
0
 10
4.35
 20
7.75
 11
8.0
 21
7.75
  0
CIRCLE
  8
0
 10
9.8
 20
7.75
 40
0.1
  0
LINE
  8
0
 10
9.729289
 20
7.679289
 11
9.870711
 21
7.820711
  0
CIRCLE
  8
0
 10
8.1
 20
7.75
 40
0.1
  0
LINE
  8
0
 10
8.029289
 20
7.679289
 11
8.170711
 21
7.820711
  0
LINE
  8
0
 10
10.2
 20
7.75
 11
9.9
 21
7.75
  0
CIRCLE
  8
0
 10
10.2
 20
7.75
 40
0.025
  0
LINE
  8
0
 10
10.225
 20
7.75
 11
10.175
 21
7.75
  0
LINE
  8
0
 10
10.224206
 20
7.75625
 11
10.175794
 21
7.75625
  0
LINE
  8
0
 10
10.221651
 20
7.7625
 11
10.178349
 21
7.7625
  0
LINE
  8
0
 10
10.216536
 20
7.76875
 11
10.183464
 21
7.76875
  0
LINE
  8
0
 10
10.224206
 20
7.74375
 11
10.175794
 21
7.74375
  0
LINE
  8
0
 10
10.221651
 20
7.7375
 11
10.178349
 21
7.7375
  0
LINE
  8
0
 10
10.216536
 20
7.73125
 11
10.183464
 21
7.73125
  0
LINE
  8
0
 10
10.2
 20
7.725
 11
10.2
 21
7.775
  0
LINE
  8
0
 10
10.20625
 20
7.725794
 11
10.20625
 21
7.774206
  0
LINE
  8
0
 10
10.2125
 20
7.728349
 11
10.2125
 21
7.771651
  0
LINE
  8
0
 10
10.21875
 20
7.733464
 11
10.21875
 21
7.766536
  0
LINE
  8
0
 10
10.19375
 20
7.725794
 11
10.19375
 21
7.774206
  0
LINE
  8
0
 10
10.1875
 20
7.728349
 11
10.1875
 21
7.771651
  0
LINE
  8
0
 10
10.18125
 20
7.733464
 11
10.18125
 21
7.766536
  0
TEXT
  8
REPLACE
 10
3.772917
 20
7.95
 40
0.125
  1
/A1-O10/
 72
     1
 11
4.2
 21
7.95
  0
TEXT
  8
REPLACE
 10
10.7
 20
7.75
 40
0.125
  1
/D12-O10/
  0
TEXT
  8
REPLACE
 10
10.7
 20
7.575
 40
0.125
  1
/D34-O10/
  0
TEXT
  8
REPLACE
 10
8.2
 20
7.75
 40
0.125
  1
/F1-O10/
  0
LINE
  8
0
 10
4.8
 20
7.35
 11
3.6
 21
7.35
  0
LINE
  8
0
 10
4.8
 20
7.175
 11
4.8
 21
7.35
  0
LINE
  8
0
 10
3.6
 20
7.175
 11
4.8
 21
7.175
  0
LINE
  8
0
 10
3.6
 20
7.35
 11
3.6
 21
7.175
  0
LINE
  8
0
 10
4.35
 20
7.0
 11
8.0
 21
7.0
  0
CIRCLE
  8
0
 10
9.8
 20
7.0
 40
0.1
  0
LINE
  8
0
 10
9.729289
 20
6.929289
 11
9.870711
 21
7.070711
  0
CIRCLE
  8
0
 10
8.1
 20
7.0
 40
0.1
  0
LINE
  8
0
 10
8.029289
 20
6.929289
 11
8.170711
 21
7.070711
  0
LINE
  8
0
 10
10.2
 20
7.0
 11
9.9
 21
7.0
  0
CIRCLE
  8
0
 10
10.2
 20
7.0
 40
0.025
  0
LINE
  8
0
 10
10.225
 20
7.0
 11
10.175
 21
7.0
  0
LINE
  8
0
 10
10.224206
 20
7.00625
 11
10.175794
 21
7.00625
  0
LINE
  8
0
 10
10.221651
 20
7.0125
 11
10.178349
 21
7.0125
  0
LINE
  8
0
 10
10.216536
 20
7.01875
 11
10.183464
 21
7.01875
  0
LINE
  8
0
 10
10.224206
 20
6.99375
 11
10.175794
 21
6.99375
  0
LINE
  8
0
 10
10.221651
 20
6.9875
 11
10.178349
 21
6.9875
  0
LINE
  8
0
 10
10.216536
 20
6.98125
 11
10.183464
 21
6.98125
  0
LINE
  8
0
 10
10.2
 20
6.975
 11
10.2
 21
7.025
  0
LINE
  8
0
 10
10.20625
 20
6.975794
 11
10.20625
 21
7.024206
  0
LINE
  8
0
 10
10.2125
 20
6.978349
 11
10.2125
 21
7.021651
  0
LINE
  8
0
 10
10.21875
 20
6.983464
 11
10.21875
 21
7.016536
  0
LINE
  8
0
 10
10.19375
 20
6.975794
 11
10.19375
 21
7.024206
  0
LINE
  8
0
 10
10.1875
 20
6.978349
 11
10.1875
 21
7.021651
  0
LINE
  8
0
 10
10.18125
 20
6.983464
 11
10.18125
 21
7.016536
  0
TEXT
  8
REPLACE
 10
3.783333
 20
7.2
 40
0.125
  1
/A1-O11/
 72
     1
 11
4.2
 21
7.2
  0
TEXT
  8
REPLACE
 10
10.7
 20
7.0
 40
0.125
  1
/D12-O11/
  0
TEXT
  8
REPLACE
 10
10.7
 20
6.825
 40
0.125
  1
/D34-O11/
  0
TEXT
  8
REPLACE
 10
8.2
 20
7.0
 40
0.125
  1
/F1-O11/
  0
LINE
  8
0
 10
4.8
 20
6.6
 11
3.6
 21
6.6
  0
LINE
  8
0
 10
4.8
 20
6.425
 11
4.8
 21
6.6
  0
LINE
  8
0
 10
3.6
 20
6.425
 11
4.8
 21
6.425
  0
LINE
  8
0
 10
3.6
 20
6.6
 11
3.6
 21
6.425
  0
LINE
  8
0
 10
4.35
 20
6.25
 11
8.0
 21
6.25
  0
CIRCLE
  8
0
 10
9.8
 20
6.25
 40
0.1
  0
LINE
  8
0
 10
9.729289
 20
6.179289
 11
9.870711
 21
6.320711
  0
CIRCLE
  8
0
 10
8.1
 20
6.25
 40
0.1
  0
LINE
  8
0
 10
8.029289
 20
6.179289
 11
8.170711
 21
6.320711
  0
LINE
  8
0
 10
10.2
 20
6.25
 11
9.9
 21
6.25
  0
CIRCLE
  8
0
 10
10.2
 20
6.25
 40
0.025
  0
LINE
  8
0
 10
10.225
 20
6.25
 11
10.175
 21
6.25
  0
LINE
  8
0
 10
10.224206
 20
6.25625
 11
10.175794
 21
6.25625
  0
LINE
  8
0
 10
10.221651
 20
6.2625
 11
10.178349
 21
6.2625
  0
LINE
  8
0
 10
10.216536
 20
6.26875
 11
10.183464
 21
6.26875
  0
LINE
  8
0
 10
10.224206
 20
6.24375
 11
10.175794
 21
6.24375
  0
LINE
  8
0
 10
10.221651
 20
6.2375
 11
10.178349
 21
6.2375
  0
LINE
  8
0
 10
10.216536
 20
6.23125
 11
10.183464
 21
6.23125
  0
LINE
  8
0
 10
10.2
 20
6.225
 11
10.2
 21
6.275
  0
LINE
  8
0
 10
10.20625
 20
6.225794
 11
10.20625
 21
6.274206
  0
LINE
  8
0
 10
10.2125
 20
6.228349
 11
10.2125
 21
6.271651
  0
LINE
  8
0
 10
10.21875
 20
6.233464
 11
10.21875
 21
6.266536
  0
LINE
  8
0
 10
10.19375
 20
6.225794
 11
10.19375
 21
6.274206
  0
LINE
  8
0
 10
10.1875
 20
6.228349
 11
10.1875
 21
6.271651
  0
LINE
  8
0
 10
10.18125
 20
6.233464
 11
10.18125
 21
6.266536
  0
TEXT
  8
REPLACE
 10
3.7625
 20
6.45
 40
0.125
  1
/A1-O12/
 72
     1
 11
4.2
 21
6.45
  0
TEXT
  8
REPLACE
 10
10.7
 20
6.25
 40
0.125
  1
/D12-O12/
  0
TEXT
  8
REPLACE
 10
10.7
 20
6.075
 40
0.125
  1
/D34-O12/
  0
TEXT
  8
REPLACE
 10
8.2
 20
6.25
 40
0.125
  1
/F1-O12/
  0
LINE
  8
0
 10
4.8
 20
5.85
 11
3.6
 21
5.85
  0
LINE
  8
0
 10
4.8
 20
5.675
 11
4.8
 21
5.85
  0
LINE
  8
0
 10
3.6
 20
5.675
 11
4.8
 21
5.675
  0
LINE
  8
0
 10
3.6
 20
5.85
 11
3.6
 21
5.675
  0
LINE
  8
0
 10
4.35
 20
5.5
 11
8.0
 21
5.5
  0
CIRCLE
  8
0
 10
9.8
 20
5.5
 40
0.1
  0
LINE
  8
0
 10
9.729289
 20
5.429289
 11
9.870711
 21
5.570711
  0
CIRCLE
  8
0
 10
8.1
 20
5.5
 40
0.1
  0
LINE
  8
0
 10
8.029289
 20
5.429289
 11
8.170711
 21
5.570711
  0
LINE
  8
0
 10
10.2
 20
5.5
 11
9.9
 21
5.5
  0
CIRCLE
  8
0
 10
10.2
 20
5.5
 40
0.025
  0
LINE
  8
0
 10
10.225
 20
5.5
 11
10.175
 21
5.5
  0
LINE
  8
0
 10
10.224206
 20
5.50625
 11
10.175794
 21
5.50625
  0
LINE
  8
0
 10
10.221651
 20
5.5125
 11
10.178349
 21
5.5125
  0
LINE
  8
0
 10
10.216536
 20
5.51875
 11
10.183464
 21
5.51875
  0
LINE
  8
0
 10
10.224206
 20
5.49375
 11
10.175794
 21
5.49375
  0
LINE
  8
0
 10
10.221651
 20
5.4875
 11
10.178349
 21
5.4875
  0
LINE
  8
0
 10
10.216536
 20
5.48125
 11
10.183464
 21
5.48125
  0
LINE
  8
0
 10
10.2
 20
5.475
 11
10.2
 21
5.525
  0
LINE
  8
0
 10
10.20625
 20
5.475794
 11
10.20625
 21
5.524206
  0
LINE
  8
0
 10
10.2125
 20
5.478349
 11
10.2125
 21
5.521651
  0
LINE
  8
0
 10
10.21875
 20
5.483464
 11
10.21875
 21
5.516536
  0
LINE
  8
0
 10
10.19375
 20
5.475794
 11
10.19375
 21
5.524206
  0
LINE
  8
0
 10
10.1875
 20
5.478349
 11
10.1875
 21
5.521651
  0
LINE
  8
0
 10
10.18125
 20
5.483464
 11
10.18125
 21
5.516536
  0
TEXT
  8
REPLACE
 10
3.7625
 20
5.7
 40
0.125
  1
/A1-O13/
 72
     1
 11
4.2
 21
5.7
  0
TEXT
  8
REPLACE
 10
10.7
 20
5.5
 40
0.125
  1
/D12-O13/
  0
TEXT
  8
REPLACE
 10
10.7
 20
5.325
 40
0.125
  1
/D34-O13/
  0
TEXT
  8
REPLACE
 10
8.2
 20
5.5
 40
0.125
  1
/F1-O13/
  0
LINE
  8
0
 10
4.8
 20
5.1
 11
3.6
 21
5.1
  0
LINE
  8
0
 10
4.8
 20
4.925
 11
4.8
 21
5.1
  0
LINE
  8
0
 10
3.6
 20
4.925
 11
4.8
 21
4.925
  0
LINE
  8
0
 10
3.6
 20
5.1
 11
3.6
 21
4.925
  0
LINE
  8
0
 10
4.35
 20
4.75
 11
8.0
 21
4.75
  0
CIRCLE
  8
0
 10
9.8
 20
4.75
 40
0.1
  0
LINE
  8
0
 10
9.729289
 20
4.679289
 11
9.870711
 21
4.820711
  0
CIRCLE
  8
0
 10
8.1
 20
4.75
 40
0.1
  0
LINE
  8
0
 10
8.029289
 20
4.679289
 11
8.170711
 21
4.820711
  0
LINE
  8
0
 10
10.2
 20
4.75
 11
9.9
 21
4.75
  0
CIRCLE
  8
0
 10
10.2
 20
4.75
 40
0.025
  0
LINE
  8
0
 10
10.225
 20
4.75
 11
10.175
 21
4.75
  0
LINE
  8
0
 10
10.224206
 20
4.75625
 11
10.175794
 21
4.75625
  0
LINE
  8
0
 10
10.221651
 20
4.7625
 11
10.178349
 21
4.7625
  0
LINE
  8
0
 10
10.216536
 20
4.76875
 11
10.183464
 21
4.76875
  0
LINE
  8
0
 10
10.224206
 20
4.74375
 11
10.175794
 21
4.74375
  0
LINE
  8
0
 10
10.221651
 20
4.7375
 11
10.178349
 21
4.7375
  0
LINE
  8
0
 10
10.216536
 20
4.73125
 11
10.183464
 21
4.73125
  0
LINE
  8
0
 10
10.2
 20
4.725
 11
10.2
 21
4.775
  0
LINE
  8
0
 10
10.20625
 20
4.725794
 11
10.20625
 21
4.774206
  0
LINE
  8
0
 10
10.2125
 20
4.728349
 11
10.2125
 21
4.771651
  0
LINE
  8
0
 10
10.21875
 20
4.733464
 11
10.21875
 21
4.766536
  0
LINE
  8
0
 10
10.19375
 20
4.725794
 11
10.19375
 21
4.774206
  0
LINE
  8
0
 10
10.1875
 20
4.728349
 11
10.1875
 21
4.771651
  0
LINE
  8
0
 10
10.18125
 20
4.733464
 11
10.18125
 21
4.766536
  0
TEXT
  8
REPLACE
 10
3.7625
 20
4.95
 40
0.125
  1
/A1-O14/
 72
     1
 11
4.2
 21
4.95
  0
TEXT
  8
REPLACE
 10
10.7
 20
4.75
 40
0.125
  1
/D12-O14/
  0
TEXT
  8
REPLACE
 10
10.7
 20
4.575
 40
0.125
  1
/D34-O14/
  0
TEXT
  8
REPLACE
 10
8.2
 20
4.75
 40
0.125
  1
/F1-O14/
  0
LINE
  8
0
 10
4.8
 20
4.35
 11
3.6
 21
4.35
  0
LINE
  8
0
 10
4.8
 20
4.175
 11
4.8
 21
4.35
  0
LINE
  8
0
 10
3.6
 20
4.175
 11
4.8
 21
4.175
  0
LINE
  8
0
 10
3.6
 20
4.35
 11
3.6
 21
4.175
  0
LINE
  8
0
 10
4.35
 20
4.0
 11
8.0
 21
4.0
  0
CIRCLE
  8
0
 10
9.8
 20
4.0
 40
0.1
  0
LINE
  8
0
 10
9.729289
 20
3.929289
 11
9.870711
 21
4.070711
  0
CIRCLE
  8
0
 10
8.1
 20
4.0
 40
0.1
  0
LINE
  8
0
 10
8.029289
 20
3.929289
 11
8.170711
 21
4.070711
  0
LINE
  8
0
 10
10.2
 20
4.0
 11
9.9
 21
4.0
  0
CIRCLE
  8
0
 10
10.2
 20
4.0
 40
0.025
  0
LINE
  8
0
 10
10.225
 20
4.0
 11
10.175
 21
4.0
  0
LINE
  8
0
 10
10.224206
 20
4.00625
 11
10.175794
 21
4.00625
  0
LINE
  8
0
 10
10.221651
 20
4.0125
 11
10.178349
 21
4.0125
  0
LINE
  8
0
 10
10.216536
 20
4.01875
 11
10.183464
 21
4.01875
  0
LINE
  8
0
 10
10.224206
 20
3.99375
 11
10.175794
 21
3.99375
  0
LINE
  8
0
 10
10.221651
 20
3.9875
 11
10.178349
 21
3.9875
  0
LINE
  8
0
 10
10.216536
 20
3.98125
 11
10.183464
 21
3.98125
  0
LINE
  8
0
 10
10.2
 20
3.975
 11
10.2
 21
4.025
  0
LINE
  8
0
 10
10.20625
 20
3.975794
 11
10.20625
 21
4.024206
  0
LINE
  8
0
 10
10.2125
 20
3.978349
 11
10.2125
 21
4.021651
  0
LINE
  8
0
 10
10.21875
 20
3.983464
 11
10.21875
 21
4.016536
  0
LINE
  8
0
 10
10.19375
 20
3.975794
 11
10.19375
 21
4.024206
  0
LINE
  8
0
 10
10.1875
 20
3.978349
 11
10.1875
 21
4.021651
  0
LINE
  8
0
 10
10.18125
 20
3.983464
 11
10.18125
 21
4.016536
  0
TEXT
  8
REPLACE
 10
3.7625
 20
4.2
 40
0.125
  1
/A1-O15/
 72
     1
 11
4.2
 21
4.2
  0
TEXT
  8
REPLACE
 10
10.7
 20
4.0
 40
0.125
  1
/D12-O15/
  0
TEXT
  8
REPLACE
 10
10.7
 20
3.825
 40
0.125
  1
/D34-O15/
  0
TEXT
  8
REPLACE
 10
8.2
 20
4.0
 40
0.125
  1
/F1-O15/
  0
LINE
  8
0
 10
4.8
 20
3.6
 11
3.6
 21
3.6
  0
LINE
  8
0
 10
4.8
 20
3.425
 11
4.8
 21
3.6
  0
LINE
  8
0
 10
3.6
 20
3.425
 11
4.8
 21
3.425
  0
LINE
  8
0
 10
3.6
 20
3.6
 11
3.6
 21
3.425
  0
LINE
  8
0
 10
4.35
 20
3.25
 11
8.0
 21
3.25
  0
CIRCLE
  8
0
 10
9.8
 20
3.25
 40
0.1
  0
LINE
  8
0
 10
9.729289
 20
3.179289
 11
9.870711
 21
3.320711
  0
CIRCLE
  8
0
 10
8.1
 20
3.25
 40
0.1
  0
LINE
  8
0
 10
8.029289
 20
3.179289
 11
8.170711
 21
3.320711
  0
LINE
  8
0
 10
10.2
 20
3.25
 11
9.9
 21
3.25
  0
CIRCLE
  8
0
 10
10.2
 20
3.25
 40
0.025
  0
LINE
  8
0
 10
10.225
 20
3.25
 11
10.175
 21
3.25
  0
LINE
  8
0
 10
10.224206
 20
3.25625
 11
10.175794
 21
3.25625
  0
LINE
  8
0
 10
10.221651
 20
3.2625
 11
10.178349
 21
3.2625
  0
LINE
  8
0
 10
10.216536
 20
3.26875
 11
10.183464
 21
3.26875
  0
LINE
  8
0
 10
10.224206
 20
3.24375
 11
10.175794
 21
3.24375
  0
LINE
  8
0
 10
10.221651
 20
3.2375
 11
10.178349
 21
3.2375
  0
LINE
  8
0
 10
10.216536
 20
3.23125
 11
10.183464
 21
3.23125
  0
LINE
  8
0
 10
10.2
 20
3.225
 11
10.2
 21
3.275
  0
LINE
  8
0
 10
10.20625
 20
3.225794
 11
10.20625
 21
3.274206
  0
LINE
  8
0
 10
10.2125
 20
3.228349
 11
10.2125
 21
3.271651
  0
LINE
  8
0
 10
10.21875
 20
3.233464
 11
10.21875
 21
3.266536
  0
LINE
  8
0
 10
10.19375
 20
3.225794
 11
10.19375
 21
3.274206
  0
LINE
  8
0
 10
10.1875
 20
3.228349
 11
10.1875
 21
3.271651
  0
LINE
  8
0
 10
10.18125
 20
3.233464
 11
10.18125
 21
3.266536
  0
TEXT
  8
REPLACE
 10
3.7625
 20
3.45
 40
0.125
  1
/A1-O16/
 72
     1
 11
4.2
 21
3.45
  0
TEXT
  8
REPLACE
 10
10.7
 20
3.25
 40
0.125
  1
/D12-O16/
  0
TEXT
  8
REPLACE
 10
10.7
 20
3.075
 40
0.125
  1
/D34-O16/
  0
TEXT
  8
REPLACE
 10
8.2
 20
3.25
 40
0.125
  1
/F1-O16/
  0
TEXT
  8
REPLACE
 10
31.058406
 20
1.784219
 40
0.125
  1
/RANGE/
 72
     1
 11
31.475073
 21
1.784219
  0
TEXT
  8
REPLACE
 10
30.5
 20
1.4
 40
0.125
  1
/CLIENT/
  0
TEXT
  8
REPLACE
 10
31.175
 20
1.175
 40
0.075
  1
/PROJECT/
 72
     1
 11
31.5
 21
1.175
  0
TEXT
  8
REPLACE
 10
31.2625
 20
1.075
 40
0.075
  1
/TITLE/
 72
     1
 11
31.5
 21
1.075
  0
LINE
  8
0
 10
18.0
 20
0.5
 11
18.0
 21
1.75
  0
LINE
  8
0
 39
0.025
 10
1.0
 20
0.5
 11
33.5
 21
0.5
  0
LINE
  8
0
 39
0.025
 10
33.5
 20
0.5
 11
33.5
 21
21.5
  0
LINE
  8
0
 39
0.025
 10
33.5
 20
21.5
 11
1.0
 21
21.5
  0
LINE
  8
0
 39
0.025
 10
1.0
 20
21.5
 11
1.0
 21
0.5
  0
LINE
  8
0
 39
0.025
 10
18.0
 20
1.75
 11
33.5
 21
1.75
  0
LINE
  8
0
 39
0.025
 10
29.5
 20
1.75
 11
29.5
 21
0.5
  0
LINE
  8
0
 39
0.025
 10
26.5
 20
1.75
 11
26.5
 21
0.5
  0
LINE
  8
0
 39
0.025
 10
22.5
 20
1.75
 11
22.5
 21
0.5
  0
LINE
  8
0
 39
0.025
 10
18.5
 20
1.75
 11
18.5
 21
0.5
  0
LINE
  8
0
 39
0.025
 10
33.5
 20
0.925
 11
26.5
 21
0.925
  0
LINE
  8
0
 39
0.025
 10
33.5
 20
1.3
 11
29.5
 21
1.3
  0
LINE
  8
0
 10
18.25
 20
0.5
 11
18.25
 21
1.75
  0
LINE
  8
0
 10
18.5
 20
0.675
 11
29.5
 21
0.675
  0
LINE
  8
0
 10
18.5
 20
0.8
 11
33.5
 21
0.8
  0
LINE
  8
0
 10
18.5
 20
0.925
 11
26.5
 21
0.925
  0
LINE
  8
0
 10
18.5
 20
1.05
 11
26.5
 21
1.05
  0
LINE
  8
0
 10
18.5
 20
1.175
 11
26.5
 21
1.175
  0
LINE
  8
0
 10
18.5
 20
1.3
 11
26.5
 21
1.3
  0
LINE
  8
0
 10
18.5
 20
1.55
 11
26.5
 21
1.55
  0
TEXT
  8
0
 10
20.104167
 20
1.625
 40
0.0625
  1
GENERAL NOTES
 72
     1
 11
20.5
 21
1.625
  0
LINE
  8
0
 10
22.7
 20
1.75
 11
22.7
 21
0.5
  0
LINE
  8
0
 10
26.3
 20
1.75
 11
26.3
 21
0.5
  0
LINE
  8
0
 10
26.1
 20
1.75
 11
26.1
 21
0.5
  0
LINE
  8
0
 10
25.8
 20
1.75
 11
25.8
 21
0.5
  0
LINE
  8
0
 10
25.6
 20
1.75
 11
25.6
 21
0.5
  0
TEXT
  8
0
 10
24.020833
 20
1.625
 40
0.0625
  1
REVISION
 72
     1
 11
24.25
 21
1.625
  0
TEXT
  8
0
 10
25.647917
 20
1.625
 40
0.0625
  1
BY
 72
     1
 11
25.7
 21
1.625
  0
TEXT
  8
0
 10
25.835417
 20
1.625
 40
0.0625
  1
DATE
 72
     1
 11
25.95
 21
1.625
  0
TEXT
  8
0
 10
26.116667
 20
1.625
 40
0.0625
  1
CHD
 72
     1
 11
26.2
 21
1.625
  0
TEXT
  8
0
 10
26.316667
 20
1.625
 40
0.0625
  1
APP
 72
     1
 11
26.4
 21
1.625
  0
TEXT
  8
0
 10
22.547917
 20
1.625
 40
0.0625
  1
No
 72
     1
 11
22.6
 21
1.625
  0
LINE
  8
0
 10
18.5
 20
1.425
 11
26.5
 21
1.425
  0
LINE
  8
0
 10
26.8
 20
0.925
 11
26.8
 21
0.5
  0
LINE
  8
0
 10
28.825
 20
0.925
 11
28.825
 21
0.5
  0
LINE
  8
0
 10
28.15
 20
0.925
 11
28.15
 21
0.5
  0
LINE
  8
0
 10
27.475
 20
0.925
 11
27.475
 21
0.5
  0
TEXT
  8
0
 10
26.597917
 20
0.7
 40
0.0625
  1
BY
 72
     1
 11
26.65
 21
0.7
  0
TEXT
  8
0
 10
26.535417
 20
0.575
 40
0.0625
  1
DATE
 72
     1
 11
26.65
 21
0.575
  0
TEXT
  8
0
 10
26.96875
 20
0.825
 40
0.0625
  1
DRAWN
 72
     1
 11
27.125
 21
0.825
  0
TEXT
  8
0
 10
27.591667
 20
0.825
 40
0.0625
  1
CHECKED
 72
     1
 11
27.8
 21
0.825
  0
TEXT
  8
0
 10
28.225
 20
0.825
 40
0.0625
  1
APPROVED
 72
     1
 11
28.475
 21
0.825
  0
TEXT
  8
0
 10
28.920833
 20
0.825
 40
0.0625
  1
DESIGNED
 72
     1
 11
29.15
 21
0.825
  0
LINE
  8
0
 10
33.2
 20
0.925
 11
33.2
 21
0.5
  0
LINE
  8
0
 10
32.9
 20
0.925
 11
32.9
 21
0.5
  0
LINE
  8
0
 10
30.1
 20
0.925
 11
30.1
 21
0.5
  0
TEXT
  8
0
 10
29.654167
 20
0.825
 40
0.0625
  1
SCALE
 72
     1
 11
29.8
 21
0.825
  0
TEXT
  8
0
 10
31.072917
 20
0.825
 40
0.0625
  1
DRAWING NUMBER
 72
     1
 11
31.5
 21
0.825
  0
TEXT
  8
0
 10
32.904167
 20
0.825
 40
0.0625
  1
SHEET
 72
     1
 11
33.05
 21
0.825
  0
TEXT
  8
0
 10
33.25625
 20
0.825
 40
0.0625
  1
REV
 72
     1
 11
33.35
 21
0.825
  0
ENDSEC
  0
EOF
