  0
SECTION
  2
HEADER
999
User:  aytdjanov
999
Date:  Tue, 7  Jun 2011.  Time:  18:11:30
  9
$LIMMIN
 10
0.00000
 20
0.00000
  9
$LIMMAX
 10
420.000
 20
297.000
  9
$EXTMIN
 10
0.00000
 20
0.00000
  9
$EXTMAX
 10
420.000
 20
297.000
  9
$LTSCALE
 40
1.00000
  9
$DIMSCALE
 40
1.00000
  9
$PLINEGEN
 70
1
  0
ENDSEC
999
--------------------------------------------------------------------------------
  0
SECTION
  2
TABLES
  0
TABLE
  2
STYLE
 70
1
  0
STYLE
  2
HTX1
 70
0
 40
0.00000
 41
0.980000
 50
0.00000
 71
0
 42
1.00000
  3
P8516901
  4

  0
ENDTAB
  0
TABLE
  2
LTYPE
 70
14
  0
LTYPE
  2
GTSOLID
 70
0
  3
GTSOLID
 72
65
 73
0
 40
24.0000
  0
LTYPE
  2
GTDASH
 70
0
  3
GTDASH
 72
65
 73
2
 40
12.0000
 49
8.00000
 49
-4.00000
  0
LTYPE
  2
GTDOT
 70
0
  3
GTDOT
 72
65
 73
2
 40
6.00000
 49
1.60000
 49
-4.40000
  0
LTYPE
  2
GTCHAIN
 70
0
  3
GTCHAIN
 72
65
 73
4
 40
24.0000
 49
16.0000
 49
-3.20000
 49
1.60000
 49
-3.20000
  0
LTYPE
  2
GTLDASH
 70
0
  3
GTLDASH
 72
65
 73
2
 40
18.0000
 49
14.4000
 49
-3.60000
  0
LTYPE
  2
GTDDASH
 70
0
  3
GTDDASH
 72
65
 73
6
 40
22.0000
 49
0.251429
 49
-3.01714
 49
6.28571
 49
-3.14286
 49
6.28571
 49
-3.01714
  0
LTYPE
  2
GTDDOT
 70
0
  3
GTDDOT
 72
65
 73
6
 40
16.0000
 49
6.34921
 49
-3.04762
 49
0.253968
 49
-3.04762
 49
0.253968
 49
-3.04762
  0
LTYPE
  2
GTDCHAIN
 70
0
  3
GTDCHAIN
 72
65
 73
6
 40
30.0000
 49
14.6939
 49
-3.06122
 49
3.06122
 49
-3.06122
 49
3.06122
 49
-3.06122
  0
LTYPE
  2
GTFDOT
 70
0
  3
GTFDOT
 72
65
 73
2
 40
3.00000
 49
0.240000
 49
-2.76000
  0
LTYPE
  2
GTTCHAIN
 70
0
  3
GTTCHAIN
 72
65
 73
8
 40
45.0000
 49
24.0000
 49
-3.00000
 49
3.00000
 49
-3.00000
 49
3.00000
 49
-3.00000
 49
3.00000
 49
-3.00000
  0
LTYPE
  2
GT110
 70
0
  3
GT110
 72
65
 73
2
 40
3.00000
 49
2.00000
 49
-1.00000
  0
LTYPE
  2
GT101
 70
0
  3
GT101
 72
65
 73
2
 40
3.00000
 49
2.00000
 49
-1.00000
  0
LTYPE
  2
GT100
 70
0
  3
GT100
 72
65
 73
2
 40
1.00000
 49
0.666667
 49
-0.333333
  0
LTYPE
  2
GT111
 70
0
  3
GT111
 72
65
 73
4
 40
6.00000
 49
4.00000
 49
-0.800000
 49
0.400000
 49
-0.800000
  0
ENDTAB
  0
ENDSEC
999
--------------------------------------------------------------------------------
  0
SECTION
  2
ENTITIES
  0
POLYLINE
  8
GT_1
 66
1
 70
128
  0
VERTEX
  8
GT_1
 10
0.00000
 20
0.00000
  0
VERTEX
  8
GT_1
 10
419.800
 20
0.00000
  0
VERTEX
  8
GT_1
 10
419.800
 20
296.800
  0
VERTEX
  8
GT_1
 10
0.00000
 20
296.800
  0
VERTEX
  8
GT_1
 10
0.00000
 20
0.00000
  0
SEQEND
  0
POLYLINE
  8
GT_1
 66
1
 70
128
  0
VERTEX
  8
GT_1
 10
217.400
 20
5.00000
  0
VERTEX
  8
GT_1
 10
217.400
 20
4.80000
  0
VERTEX
  8
GT_1
 10
415.000
 20
4.80000
  0
VERTEX
  8
GT_1
 10
415.000
 20
292.000
  0
VERTEX
  8
GT_1
 10
19.8000
 20
292.000
  0
VERTEX
  8
GT_1
 10
19.8000
 20
4.80000
  0
VERTEX
  8
GT_1
 10
217.400
 20
4.80000
  0
VERTEX
  8
GT_1
 10
217.400
 20
5.20000
  0
VERTEX
  8
GT_1
 10
20.2000
 20
5.20000
  0
VERTEX
  8
GT_1
 10
20.2000
 20
291.600
  0
VERTEX
  8
GT_1
 10
414.600
 20
291.600
  0
VERTEX
  8
GT_1
 10
414.600
 20
5.20000
  0
VERTEX
  8
GT_1
 10
217.400
 20
5.20000
  0
VERTEX
  8
GT_1
 10
217.400
 20
5.00000
  0
VERTEX
  8
GT_1
 10
414.800
 20
5.00000
  0
VERTEX
  8
GT_1
 10
414.800
 20
291.800
  0
VERTEX
  8
GT_1
 10
20.0000
 20
291.800
  0
VERTEX
  8
GT_1
 10
20.0000
 20
5.00000
  0
VERTEX
  8
GT_1
 10
217.400
 20
5.00000
  0
SEQEND
  0
POLYLINE
  8
GT_1
 66
1
 70
128
  0
VERTEX
  8
GT_1
 10
8.00000
 20
5.00000
  0
VERTEX
  8
GT_1
 10
8.20000
 20
5.00000
  0
VERTEX
  8
GT_1
 10
8.20000
 20
89.9000
  0
VERTEX
  8
GT_1
 10
7.80000
 20
89.9000
  0
VERTEX
  8
GT_1
 10
7.80000
 20
5.00000
  0
VERTEX
  8
GT_1
 10
8.00000
 20
5.00000
  0
VERTEX
  8
GT_1
 10
8.00000
 20
89.9000
  0
SEQEND
  0
POLYLINE
  8
GT_1
 66
1
 70
128
  0
VERTEX
  8
GT_1
 10
13.0000
 20
5.00000
  0
VERTEX
  8
GT_1
 10
13.2000
 20
5.00000
  0
VERTEX
  8
GT_1
 10
13.2000
 20
89.9000
  0
VERTEX
  8
GT_1
 10
12.8000
 20
89.9000
  0
VERTEX
  8
GT_1
 10
12.8000
 20
5.00000
  0
VERTEX
  8
GT_1
 10
13.0000
 20
5.00000
  0
VERTEX
  8
GT_1
 10
13.0000
 20
89.9000
  0
SEQEND
  0
POLYLINE
  8
GT_1
 66
1
 70
128
  0
VERTEX
  8
GT_1
 10
229.900
 20
5.00000
  0
VERTEX
  8
GT_1
 10
230.100
 20
5.00000
  0
VERTEX
  8
GT_1
 10
230.100
 20
20.0000
  0
VERTEX
  8
GT_1
 10
229.700
 20
20.0000
  0
VERTEX
  8
GT_1
 10
229.700
 20
5.00000
  0
VERTEX
  8
GT_1
 10
229.900
 20
5.00000
  0
VERTEX
  8
GT_1
 10
229.900
 20
20.0000
  0
SEQEND
  0
POLYLINE
  8
GT_1
 66
1
 70
128
  0
VERTEX
  8
GT_1
 10
239.900
 20
5.00000
  0
VERTEX
  8
GT_1
 10
240.100
 20
5.00000
  0
VERTEX
  8
GT_1
 10
240.100
 20
20.0000
  0
VERTEX
  8
GT_1
 10
239.700
 20
20.0000
  0
VERTEX
  8
GT_1
 10
239.700
 20
5.00000
  0
VERTEX
  8
GT_1
 10
239.900
 20
5.00000
  0
VERTEX
  8
GT_1
 10
239.900
 20
20.0000
  0
SEQEND
  0
POLYLINE
  8
GT_1
 66
1
 70
128
  0
VERTEX
  8
GT_1
 10
249.900
 20
5.00000
  0
VERTEX
  8
GT_1
 10
250.100
 20
5.00000
  0
VERTEX
  8
GT_1
 10
250.100
 20
20.0000
  0
VERTEX
  8
GT_1
 10
249.700
 20
20.0000
  0
VERTEX
  8
GT_1
 10
249.700
 20
5.00000
  0
VERTEX
  8
GT_1
 10
249.900
 20
5.00000
  0
VERTEX
  8
GT_1
 10
249.900
 20
20.0000
  0
SEQEND
  0
POLYLINE
  8
GT_1
 66
1
 70
128
  0
VERTEX
  8
GT_1
 10
259.900
 20
5.00000
  0
VERTEX
  8
GT_1
 10
260.100
 20
5.00000
  0
VERTEX
  8
GT_1
 10
260.100
 20
20.0000
  0
VERTEX
  8
GT_1
 10
259.700
 20
20.0000
  0
VERTEX
  8
GT_1
 10
259.700
 20
5.00000
  0
VERTEX
  8
GT_1
 10
259.900
 20
5.00000
  0
VERTEX
  8
GT_1
 10
259.900
 20
20.0000
  0
SEQEND
  0
POLYLINE
  8
GT_1
 66
1
 70
128
  0
VERTEX
  8
GT_1
 10
269.900
 20
5.00000
  0
VERTEX
  8
GT_1
 10
270.100
 20
5.00000
  0
VERTEX
  8
GT_1
 10
270.100
 20
20.0000
  0
VERTEX
  8
GT_1
 10
269.700
 20
20.0000
  0
VERTEX
  8
GT_1
 10
269.700
 20
5.00000
  0
VERTEX
  8
GT_1
 10
269.900
 20
5.00000
  0
VERTEX
  8
GT_1
 10
269.900
 20
20.0000
  0
SEQEND
  0
POLYLINE
  8
GT_1
 66
1
 70
128
  0
VERTEX
  8
GT_1
 10
284.800
 20
5.00000
  0
VERTEX
  8
GT_1
 10
285.000
 20
5.00000
  0
VERTEX
  8
GT_1
 10
285.000
 20
20.0000
  0
VERTEX
  8
GT_1
 10
284.600
 20
20.0000
  0
VERTEX
  8
GT_1
 10
284.600
 20
5.00000
  0
VERTEX
  8
GT_1
 10
284.800
 20
5.00000
  0
VERTEX
  8
GT_1
 10
284.800
 20
20.0000
  0
SEQEND
  0
POLYLINE
  8
GT_1
 66
1
 70
128
  0
VERTEX
  8
GT_1
 10
294.800
 20
5.00000
  0
VERTEX
  8
GT_1
 10
295.000
 20
5.00000
  0
VERTEX
  8
GT_1
 10
295.000
 20
20.0000
  0
VERTEX
  8
GT_1
 10
294.600
 20
20.0000
  0
VERTEX
  8
GT_1
 10
294.600
 20
5.00000
  0
VERTEX
  8
GT_1
 10
294.800
 20
5.00000
  0
VERTEX
  8
GT_1
 10
294.800
 20
20.0000
  0
SEQEND
  0
POLYLINE
  8
GT_1
 66
1
 70
128
  0
VERTEX
  8
GT_1
 10
414.800
 20
15.0000
  0
VERTEX
  8
GT_1
 10
414.800
 20
15.2000
  0
VERTEX
  8
GT_1
 10
404.800
 20
15.2000
  0
VERTEX
  8
GT_1
 10
404.800
 20
14.8000
  0
VERTEX
  8
GT_1
 10
414.800
 20
14.8000
  0
VERTEX
  8
GT_1
 10
414.800
 20
15.0000
  0
VERTEX
  8
GT_1
 10
404.800
 20
15.0000
  0
SEQEND
  0
POLYLINE
  8
GT_1
 66
1
 70
128
  0
VERTEX
  8
GT_1
 10
404.800
 20
5.00000
  0
VERTEX
  8
GT_1
 10
405.000
 20
5.00000
  0
VERTEX
  8
GT_1
 10
405.000
 20
20.0000
  0
VERTEX
  8
GT_1
 10
404.600
 20
20.0000
  0
VERTEX
  8
GT_1
 10
404.600
 20
5.00000
  0
VERTEX
  8
GT_1
 10
404.800
 20
5.00000
  0
VERTEX
  8
GT_1
 10
404.800
 20
20.0000
  0
SEQEND
  0
POLYLINE
  8
GT_1
 66
1
 70
128
  0
VERTEX
  8
GT_1
 10
8.00000
 20
5.00000
  0
VERTEX
  8
GT_1
 10
8.00000
 20
4.80000
  0
VERTEX
  8
GT_1
 10
20.0000
 20
4.80000
  0
VERTEX
  8
GT_1
 10
20.0000
 20
5.20000
  0
VERTEX
  8
GT_1
 10
8.00000
 20
5.20000
  0
VERTEX
  8
GT_1
 10
8.00000
 20
5.00000
  0
VERTEX
  8
GT_1
 10
20.0000
 20
5.00000
  0
SEQEND
  0
POLYLINE
  8
GT_1
 66
1
 70
128
  0
VERTEX
  8
GT_1
 10
8.00000
 20
30.0000
  0
VERTEX
  8
GT_1
 10
8.00000
 20
29.8000
  0
VERTEX
  8
GT_1
 10
20.0000
 20
29.8000
  0
VERTEX
  8
GT_1
 10
20.0000
 20
30.2000
  0
VERTEX
  8
GT_1
 10
8.00000
 20
30.2000
  0
VERTEX
  8
GT_1
 10
8.00000
 20
30.0000
  0
VERTEX
  8
GT_1
 10
20.0000
 20
30.0000
  0
SEQEND
  0
POLYLINE
  8
GT_1
 66
1
 70
128
  0
VERTEX
  8
GT_1
 10
8.00000
 20
65.0000
  0
VERTEX
  8
GT_1
 10
8.00000
 20
64.8000
  0
VERTEX
  8
GT_1
 10
20.0000
 20
64.8000
  0
VERTEX
  8
GT_1
 10
20.0000
 20
65.2000
  0
VERTEX
  8
GT_1
 10
8.00000
 20
65.2000
  0
VERTEX
  8
GT_1
 10
8.00000
 20
65.0000
  0
VERTEX
  8
GT_1
 10
20.0000
 20
65.0000
  0
SEQEND
  0
POLYLINE
  8
GT_1
 66
1
 70
128
  0
VERTEX
  8
GT_1
 10
8.00000
 20
89.9000
  0
VERTEX
  8
GT_1
 10
8.00000
 20
89.7000
  0
VERTEX
  8
GT_1
 10
20.0000
 20
89.7000
  0
VERTEX
  8
GT_1
 10
20.0000
 20
90.1000
  0
VERTEX
  8
GT_1
 10
8.00000
 20
90.1000
  0
VERTEX
  8
GT_1
 10
8.00000
 20
89.9000
  0
VERTEX
  8
GT_1
 10
20.0000
 20
89.9000
  0
SEQEND
  0
POLYLINE
  8
GT_1
 66
1
 70
128
  0
VERTEX
  8
GT_1
 10
229.900
 20
10.0000
  0
VERTEX
  8
GT_1
 10
229.900
 20
9.80000
  0
VERTEX
  8
GT_1
 10
294.800
 20
9.80000
  0
VERTEX
  8
GT_1
 10
294.800
 20
10.2000
  0
VERTEX
  8
GT_1
 10
229.900
 20
10.2000
  0
VERTEX
  8
GT_1
 10
229.900
 20
10.0000
  0
VERTEX
  8
GT_1
 10
294.800
 20
10.0000
  0
SEQEND
  0
POLYLINE
  8
GT_1
 66
1
 70
128
  0
VERTEX
  8
GT_1
 10
229.900
 20
15.0000
  0
VERTEX
  8
GT_1
 10
229.900
 20
14.8000
  0
VERTEX
  8
GT_1
 10
294.800
 20
14.8000
  0
VERTEX
  8
GT_1
 10
294.800
 20
15.2000
  0
VERTEX
  8
GT_1
 10
229.900
 20
15.2000
  0
VERTEX
  8
GT_1
 10
229.900
 20
15.0000
  0
VERTEX
  8
GT_1
 10
294.800
 20
15.0000
  0
SEQEND
  0
POLYLINE
  8
GT_1
 66
1
 70
128
  0
VERTEX
  8
GT_1
 10
229.900
 20
20.0000
  0
VERTEX
  8
GT_1
 10
229.900
 20
19.8000
  0
VERTEX
  8
GT_1
 10
414.800
 20
19.8000
  0
VERTEX
  8
GT_1
 10
414.800
 20
20.2000
  0
VERTEX
  8
GT_1
 10
229.900
 20
20.2000
  0
VERTEX
  8
GT_1
 10
229.900
 20
20.0000
  0
VERTEX
  8
GT_1
 10
414.800
 20
20.0000
  0
SEQEND
  0
POLYLINE
  8
GT_1
 66
1
 70
128
  0
VERTEX
  8
GT_1
 10
229.900
 20
20.0000
  0
VERTEX
  8
GT_1
 10
229.900
 20
20.2000
  0
VERTEX
  8
GT_1
 10
213.700
 20
20.2000
  0
VERTEX
  8
GT_1
 10
213.700
 20
20.1000
  0
VERTEX
  8
GT_1
 10
213.700
 20
20.2000
  0
VERTEX
  8
GT_1
 10
213.700
 20
19.8000
  0
VERTEX
  8
GT_1
 10
229.900
 20
19.8000
  0
VERTEX
  8
GT_1
 10
229.900
 20
19.9000
  0
VERTEX
  8
GT_1
 10
229.900
 20
19.8000
  0
VERTEX
  8
GT_1
 10
229.900
 20
20.0000
  0
VERTEX
  8
GT_1
 10
213.700
 20
20.0000
  0
SEQEND
  0
POLYLINE
  8
GT_1
 66
1
 70
128
  0
VERTEX
  8
GT_1
 10
207.100
 20
20.0000
  0
VERTEX
  8
GT_1
 10
206.900
 20
20.0000
  0
VERTEX
  8
GT_1
 10
206.900
 20
5.00000
  0
VERTEX
  8
GT_1
 10
207.300
 20
5.00000
  0
VERTEX
  8
GT_1
 10
207.300
 20
20.0000
  0
VERTEX
  8
GT_1
 10
207.100
 20
20.0000
  0
VERTEX
  8
GT_1
 10
207.100
 20
5.00000
  0
SEQEND
  0
POLYLINE
  8
GT_1
 66
1
 70
128
  0
VERTEX
  8
GT_1
 10
147.900
 20
20.0000
  0
VERTEX
  8
GT_1
 10
147.700
 20
20.0000
  0
VERTEX
  8
GT_1
 10
147.700
 20
5.00000
  0
VERTEX
  8
GT_1
 10
148.100
 20
5.00000
  0
VERTEX
  8
GT_1
 10
148.100
 20
20.0000
  0
VERTEX
  8
GT_1
 10
147.900
 20
20.0000
  0
VERTEX
  8
GT_1
 10
147.900
 20
5.00000
  0
SEQEND
  0
POLYLINE
  8
GT_1
 66
1
 70
128
  0
VERTEX
  8
GT_1
 10
213.700
 20
20.0000
  0
VERTEX
  8
GT_1
 10
213.700
 20
20.2000
  0
VERTEX
  8
GT_1
 10
213.700
 20
20.1000
  0
VERTEX
  8
GT_1
 10
213.700
 20
20.2000
  0
VERTEX
  8
GT_1
 10
147.900
 20
20.2000
  0
VERTEX
  8
GT_1
 10
147.900
 20
19.8000
  0
VERTEX
  8
GT_1
 10
147.900
 20
19.9000
  0
VERTEX
  8
GT_1
 10
147.900
 20
19.8000
  0
VERTEX
  8
GT_1
 10
213.700
 20
19.8000
  0
VERTEX
  8
GT_1
 10
213.700
 20
20.0000
  0
VERTEX
  8
GT_1
 10
147.900
 20
20.0000
  0
SEQEND
  0
POLYLINE
  8
GT_1
 66
1
 70
128
  0
VERTEX
  8
GT_1
 10
415.000
 20
5.00000
  0
VERTEX
  8
GT_1
 10
415.000
 20
292.000
  0
VERTEX
  8
GT_1
 10
228.700
 20
292.000
  0
VERTEX
  8
GT_1
 10
228.700
 20
5.00000
  0
VERTEX
  8
GT_1
 10
415.000
 20
5.00000
  0
SEQEND
  0
POLYLINE
  8
GT_1
 66
1
 70
128
  0
VERTEX
  8
GT_1
 10
206.900
 20
5.00000
  0
VERTEX
  8
GT_1
 10
206.900
 20
19.0000
  0
SEQEND
  0
TEXT
  8
GT_1
 10
208.400
 20
15.3000
 40
2.50000
  1
  ~l
 41
0.980000
  7
HTX1
  0
TEXT
  8
GT_1
 10
208.400
 20
11.9000
 40
2.50000
  1
2  ~i  4
 41
0.980000
  7
HTX1
  0
TEXT
  8
GT_1
 10
235.000
 20
6.50000
 40
2.50000
  1
~sИзм.
 41
0.980000
  7
HTX1
  0
TEXT
  8
GT_1
 10
245.000
 20
6.50000
 40
2.50000
  1
~sКол.уч.
 41
0.980000
  7
HTX1
  0
TEXT
  8
GT_1
 10
255.000
 20
6.50000
 40
2.50000
  1
~sЛист
 41
0.980000
  7
HTX1
  0
TEXT
  8
GT_1
 10
409.000
 20
16.0000
 40
2.50000
  1
~sЛист
 41
0.980000
  7
HTX1
  0
TEXT
  8
GT_1
 10
265.000
 20
6.50000
 40
2.50000
  1
~s№ док.
 41
0.980000
  7
HTX1
  0
TEXT
  8
GT_1
 10
277.000
 20
6.50000
 40
2.50000
  1
~sПодпись
 41
0.980000
  7
HTX1
  0
TEXT
  8
GT_1
 10
290.000
 20
6.50000
 40
2.50000
  1
~sДата
 41
0.980000
  7
HTX1
  0
TEXT
  8
GT_1
 10
12.0000
 20
10.0000
 40
2.50000
  1
Инв. № подл.
 50
90.0000
 41
0.980000
  7
HTX1
  0
TEXT
  8
GT_1
 10
12.0000
 20
37.0000
 40
2.50000
  1
Подпись и дата
 50
90.0000
 41
0.980000
  7
HTX1
  0
TEXT
  8
GT_1
 10
12.0000
 20
69.0000
 40
2.50000
  1
Взаим. инв. №
 50
90.0000
 41
0.980000
  7
HTX1
  0
TEXT
  8
GT_1
 10
350.000
 20
11.0000
 40
3.75000
  1
~s
 41
0.980000
  7
HTX1
  0
TEXT
  8
GT_1
 10
10.0000
 20
10.0000
 40
2.50000
  1
**=17410/1197
 41
0.980000
  7
HTX1
  0
TEXT
  8
GT_1
 10
23.8000
 20
284.000
 40
6.25000
  1
N
 41
0.980000
  7
HTX1
  0
TEXT
  8
GT_1
 10
23.6000
 20
284.000
 40
6.25000
  1
N
 41
0.980000
  7
HTX1
  0
POLYLINE
  8
GT_1
 66
1
 70
128
  0
VERTEX
  8
GT_1
 10
30.0000
 20
282.000
  0
VERTEX
  8
GT_1
 10
34.0000
 20
276.000
  0
VERTEX
  8
GT_1
 10
33.6000
 20
279.200
  0
VERTEX
  8
GT_1
 10
40.4000
 20
275.200
  0
VERTEX
  8
GT_1
 10
41.2000
 20
276.400
  0
VERTEX
  8
GT_1
 10
34.4000
 20
280.400
  0
VERTEX
  8
GT_1
 10
37.2000
 20
281.600
  0
VERTEX
  8
GT_1
 10
30.0000
 20
282.000
  0
SEQEND
  0
POLYLINE
  8
GT_1
 66
1
 70
128
  0
VERTEX
  8
GT_1
 10
44.0000
 20
291.200
  0
VERTEX
  8
GT_1
 10
44.0000
 20
271.200
  0
VERTEX
  8
GT_1
 10
20.0000
 20
271.200
  0
VERTEX
  8
GT_1
 10
20.0000
 20
291.400
  0
VERTEX
  8
GT_1
 10
44.2000
 20
291.400
  0
VERTEX
  8
GT_1
 10
44.2000
 20
271.400
  0
VERTEX
  8
GT_1
 10
20.2000
 20
271.400
  0
VERTEX
  8
GT_1
 10
20.2000
 20
291.600
  0
VERTEX
  8
GT_1
 10
44.4000
 20
291.600
  0
VERTEX
  8
GT_1
 10
44.4000
 20
271.600
  0
VERTEX
  8
GT_1
 10
20.4000
 20
271.600
  0
VERTEX
  8
GT_1
 10
20.4000
 20
291.800
  0
VERTEX
  8
GT_1
 10
44.6000
 20
291.800
  0
VERTEX
  8
GT_1
 10
44.6000
 20
271.800
  0
VERTEX
  8
GT_1
 10
20.6000
 20
271.800
  0
VERTEX
  8
GT_1
 10
20.6000
 20
292.000
  0
SEQEND
  0
POLYLINE
  8
GT_1
 66
1
 70
128
  6
GT110
  0
VERTEX
  8
GT_1
  6
GT110
 10
142.800
 20
175.300
  0
VERTEX
  8
GT_1
  6
GT110
 10
156.700
 20
183.300
  0
SEQEND
  0
POLYLINE
  8
GT_1
 66
1
 70
128
  0
VERTEX
  8
GT_1
 10
141.100
 20
174.300
  0
VERTEX
  8
GT_1
 10
142.800
 20
175.300
  0
VERTEX
  8
GT_1
 10
140.800
 20
175.000
  0
SEQEND
  0
POLYLINE
  8
GT_1
 66
1
 70
128
  0
VERTEX
  8
GT_1
 10
142.800
 20
175.300
  0
VERTEX
  8
GT_1
 10
138.100
 20
173.600
  0
SEQEND
  0
TEXT
  8
GT_1
 10
123.886
 20
174.100
 40
2.50000
  1
Прод. от
 41
0.980000
  7
HTX1
  0
TEXT
  8
GT_1
 10
123.886
 20
170.767
 40
2.50000
  1
~l  1
 41
0.980000
  7
HTX1
  0
POLYLINE
  8
GT_1
 66
1
 70
128
  6
GT100
  0
VERTEX
  8
GT_1
  6
GT100
 10
156.700
 20
183.300
  0
VERTEX
  8
GT_1
  6
GT100
 10
156.700
 20
184.300
  0
VERTEX
  8
GT_1
  6
GT100
 10
155.300
 20
184.100
  0
VERTEX
  8
GT_1
  6
GT100
 10
155.000
 20
183.300
  0
VERTEX
  8
GT_1
  6
GT100
 10
156.700
 20
182.300
  0
VERTEX
  8
GT_1
  6
GT100
 10
158.100
 20
182.500
  0
VERTEX
  8
GT_1
  6
GT100
 10
158.400
 20
183.300
  0
VERTEX
  8
GT_1
  6
GT100
 10
156.700
 20
184.300
  0
VERTEX
  8
GT_1
  6
GT100
 10
155.300
 20
183.500
  0
VERTEX
  8
GT_1
  6
GT100
 10
157.900
 20
183.300
  0
VERTEX
  8
GT_1
  6
GT100
 10
157.900
 20
182.600
  0
VERTEX
  8
GT_1
  6
GT100
 10
156.700
 20
182.600
  0
VERTEX
  8
GT_1
  6
GT100
 10
156.700
 20
183.300
  0
SEQEND
  0
POLYLINE
  8
GT_1
 66
1
 70
128
 40
1.00000
 41
1.00000
  0
VERTEX
  8
GT_1
 10
156.700
 20
183.300
  0
VERTEX
  8
GT_1
 10
161.900
 20
186.300
  0
SEQEND
  0
POLYLINE
  8
GT_1
 66
1
 70
128
  0
VERTEX
  8
GT_1
 10
158.000
 20
186.300
  0
VERTEX
  8
GT_1
 10
159.300
 20
184.800
  0
VERTEX
  8
GT_1
 10
158.600
 20
186.700
  0
SEQEND
  0
POLYLINE
  8
GT_1
 66
1
 70
128
  0
VERTEX
  8
GT_1
 10
159.300
 20
184.800
  0
VERTEX
  8
GT_1
 10
154.800
 20
192.600
  0
SEQEND
  0
TEXT
  8
GT_1
 10
144.014
 20
193.100
 40
2.50000
  1
100 Ду
 41
0.980000
  7
HTX1
  0
POLYLINE
  8
GT_1
 66
1
 70
128
  0
VERTEX
  8
GT_1
 10
162.800
 20
188.800
  0
VERTEX
  8
GT_1
 10
164.500
 20
187.800
  0
VERTEX
  8
GT_1
 10
163.200
 20
189.300
  0
SEQEND
  0
POLYLINE
  8
GT_1
 66
1
 70
128
  0
VERTEX
  8
GT_1
 10
164.500
 20
187.800
  0
VERTEX
  8
GT_1
 10
160.700
 20
191.000
  0
SEQEND
  0
TEXT
  8
GT_1
 10
158.486
 20
191.500
 40
2.50000
  1
4
 41
0.980000
  7
HTX1
  0
POLYLINE
  8
GT_1
 66
1
 70
128
  0
VERTEX
  8
GT_1
 10
158.000
 20
194.500
  0
VERTEX
  8
GT_1
 10
160.600
 20
194.500
  0
VERTEX
  8
GT_1
 10
160.600
 20
191.000
  0
VERTEX
  8
GT_1
 10
158.000
 20
191.000
  0
VERTEX
  8
GT_1
 10
158.000
 20
194.500
  0
SEQEND
  0
POLYLINE
  8
GT_1
 66
1
 70
128
  0
VERTEX
  8
GT_1
 10
160.200
 20
181.300
  0
VERTEX
  8
GT_1
 10
167.300
 20
177.200
  0
SEQEND
  0
POLYLINE
  8
GT_1
 66
1
 70
128
  0
VERTEX
  8
GT_1
 10
167.700
 20
179.100
  0
VERTEX
  8
GT_1
 10
166.200
 20
177.800
  0
VERTEX
  8
GT_1
 10
168.100
 20
178.500
  0
SEQEND
  0
POLYLINE
  8
GT_1
 66
1
 70
128
  0
VERTEX
  8
GT_1
 10
166.200
 20
177.800
  0
VERTEX
  8
GT_1
 10
167.900
 20
178.800
  0
SEQEND
  0
POLYLINE
  8
GT_1
 66
1
 70
128
  0
VERTEX
  8
GT_1
 10
168.000
 20
185.800
  0
VERTEX
  8
GT_1
 10
175.100
 20
181.700
  0
SEQEND
  0
POLYLINE
  8
GT_1
 66
1
 70
128
  0
VERTEX
  8
GT_1
 10
172.500
 20
181.000
  0
VERTEX
  8
GT_1
 10
174.000
 20
182.300
  0
VERTEX
  8
GT_1
 10
172.100
 20
181.600
  0
SEQEND
  0
POLYLINE
  8
GT_1
 66
1
 70
128
  0
VERTEX
  8
GT_1
 10
174.000
 20
182.300
  0
VERTEX
  8
GT_1
 10
167.900
 20
178.800
  0
SEQEND
  0
TEXT
  8
GT_1
 10
170.255
 20
176.827
 40
2.50000
  1
150
 50
30.0000
 41
0.980000
  7
HTX1
  0
POLYLINE
  8
GT_1
 66
1
 70
128
 40
1.00000
 41
1.00000
  0
VERTEX
  8
GT_1
 10
161.900
 20
186.300
 42
0.267786
  0
VERTEX
  8
GT_1
 10
164.500
 20
190.800
  0
SEQEND
  0
POLYLINE
  8
GT_1
 66
1
 70
128
 40
1.00000
 41
1.00000
  0
VERTEX
  8
GT_1
 10
164.500
 20
190.800
  0
VERTEX
  8
GT_1
 10
164.500
 20
196.800
  0
SEQEND
  0
POLYLINE
  8
GT_1
 66
1
 70
128
  0
VERTEX
  8
GT_1
 10
164.500
 20
196.800
  0
VERTEX
  8
GT_1
 10
163.600
 20
198.300
  0
VERTEX
  8
GT_1
 10
163.100
 20
197.600
  0
VERTEX
  8
GT_1
 10
163.600
 20
196.300
  0
VERTEX
  8
GT_1
 10
165.400
 20
195.300
  0
VERTEX
  8
GT_1
 10
165.900
 20
196.000
  0
VERTEX
  8
GT_1
 10
165.400
 20
197.300
  0
VERTEX
  8
GT_1
 10
163.600
 20
198.300
  0
VERTEX
  8
GT_1
 10
163.600
 20
196.600
  0
VERTEX
  8
GT_1
 10
165.100
 20
197.100
  0
VERTEX
  8
GT_1
 10
165.700
 20
196.100
  0
VERTEX
  8
GT_1
 10
165.100
 20
195.800
  0
VERTEX
  8
GT_1
 10
164.500
 20
196.800
  0
SEQEND
  0
POLYLINE
  8
GT_1
 66
1
 70
128
 40
1.00000
 41
1.00000
  0
VERTEX
  8
GT_1
 10
164.500
 20
196.800
  0
VERTEX
  8
GT_1
 10
164.500
 20
212.300
  0
SEQEND
  0
TEXT
  8
GT_1
 10
162.950
 20
203.643
 40
2.50000
  1
1
 50
90.0000
 41
0.980000
  7
HTX1
  0
POLYLINE
  8
GT_1
 66
1
 70
128
  0
VERTEX
  8
GT_1
 10
160.000
 20
203.100
  0
VERTEX
  8
GT_1
 10
160.000
 20
205.800
  0
VERTEX
  8
GT_1
 10
163.400
 20
205.800
  0
VERTEX
  8
GT_1
 10
163.400
 20
203.100
  0
VERTEX
  8
GT_1
 10
160.000
 20
203.100
  0
SEQEND
  0
POLYLINE
  8
GT_1
 66
1
 70
128
  0
VERTEX
  8
GT_1
 10
164.500
 20
212.300
  0
VERTEX
  8
GT_1
 10
163.600
 20
213.800
  0
VERTEX
  8
GT_1
 10
163.100
 20
213.100
  0
VERTEX
  8
GT_1
 10
163.600
 20
211.800
  0
VERTEX
  8
GT_1
 10
165.400
 20
210.800
  0
VERTEX
  8
GT_1
 10
165.900
 20
211.500
  0
VERTEX
  8
GT_1
 10
165.400
 20
212.800
  0
VERTEX
  8
GT_1
 10
163.600
 20
213.800
  0
VERTEX
  8
GT_1
 10
163.600
 20
212.100
  0
VERTEX
  8
GT_1
 10
165.100
 20
212.600
  0
VERTEX
  8
GT_1
 10
165.700
 20
211.600
  0
VERTEX
  8
GT_1
 10
165.100
 20
211.300
  0
VERTEX
  8
GT_1
 10
164.500
 20
212.300
  0
SEQEND
  0
POLYLINE
  8
GT_1
 66
1
 70
128
 40
1.00000
 41
1.00000
  0
VERTEX
  8
GT_1
 10
164.500
 20
212.300
  0
VERTEX
  8
GT_1
 10
164.500
 20
218.300
  0
SEQEND
  0
POLYLINE
  8
GT_1
 66
1
 70
128
  0
VERTEX
  8
GT_1
 10
162.800
 20
222.300
  0
VERTEX
  8
GT_1
 10
164.500
 20
221.300
  0
VERTEX
  8
GT_1
 10
163.200
 20
222.800
  0
SEQEND
  0
POLYLINE
  8
GT_1
 66
1
 70
128
  0
VERTEX
  8
GT_1
 10
164.500
 20
221.300
  0
VERTEX
  8
GT_1
 10
160.700
 20
224.500
  0
SEQEND
  0
TEXT
  8
GT_1
 10
143.057
 20
225.000
 40
2.50000
  1
4
 41
0.980000
  7
HTX1
  0
POLYLINE
  8
GT_1
 66
1
 70
128
  0
VERTEX
  8
GT_1
 10
142.600
 20
228.000
  0
VERTEX
  8
GT_1
 10
145.200
 20
228.000
  0
VERTEX
  8
GT_1
 10
145.200
 20
224.500
  0
VERTEX
  8
GT_1
 10
142.600
 20
224.500
  0
VERTEX
  8
GT_1
 10
142.600
 20
228.000
  0
SEQEND
  0
TEXT
  8
GT_1
 10
143.057
 20
221.667
 40
2.50000
  1
отм. +5200
 41
0.980000
  7
HTX1
  0
POLYLINE
  8
GT_1
 66
1
 70
128
  0
VERTEX
  8
GT_1
 10
168.000
 20
185.800
  0
VERTEX
  8
GT_1
 10
175.100
 20
181.700
  0
SEQEND
  0
POLYLINE
  8
GT_1
 66
1
 70
128
  0
VERTEX
  8
GT_1
 10
173.700
 20
184.300
  0
VERTEX
  8
GT_1
 10
174.000
 20
182.300
  0
VERTEX
  8
GT_1
 10
174.300
 20
184.300
  0
SEQEND
  0
POLYLINE
  8
GT_1
 66
1
 70
128
  0
VERTEX
  8
GT_1
 10
174.000
 20
182.300
  0
VERTEX
  8
GT_1
 10
174.000
 20
195.600
  0
SEQEND
  0
POLYLINE
  8
GT_1
 66
1
 70
128
  0
VERTEX
  8
GT_1
 10
168.000
 20
219.300
  0
VERTEX
  8
GT_1
 10
175.100
 20
215.200
  0
SEQEND
  0
POLYLINE
  8
GT_1
 66
1
 70
128
  0
VERTEX
  8
GT_1
 10
174.300
 20
213.800
  0
VERTEX
  8
GT_1
 10
174.000
 20
215.800
  0
VERTEX
  8
GT_1
 10
173.700
 20
213.800
  0
SEQEND
  0
POLYLINE
  8
GT_1
 66
1
 70
128
  0
VERTEX
  8
GT_1
 10
174.000
 20
215.800
  0
VERTEX
  8
GT_1
 10
174.000
 20
195.600
  0
SEQEND
  0
TEXT
  8
GT_1
 10
176.882
 20
194.550
 40
2.50000
  1
2900
 50
90.0000
 41
0.980000
  7
HTX1
  0
POLYLINE
  8
GT_1
 66
1
 70
128
 40
1.00000
 41
1.00000
  0
VERTEX
  8
GT_1
 10
164.500
 20
218.300
 42
-0.268116
  0
VERTEX
  8
GT_1
 10
167.100
 20
222.800
  0
SEQEND
  0
POLYLINE
  8
GT_1
 66
1
 70
128
 40
1.00000
 41
1.00000
  0
VERTEX
  8
GT_1
 10
167.100
 20
222.800
  0
VERTEX
  8
GT_1
 10
172.300
 20
225.800
  0
SEQEND
  0
POLYLINE
  8
GT_1
 66
1
 70
128
  0
VERTEX
  8
GT_1
 10
172.300
 20
225.800
  0
VERTEX
  8
GT_1
 10
172.300
 20
226.800
  0
VERTEX
  8
GT_1
 10
170.900
 20
226.600
  0
VERTEX
  8
GT_1
 10
170.600
 20
225.800
  0
VERTEX
  8
GT_1
 10
172.300
 20
224.800
  0
VERTEX
  8
GT_1
 10
173.700
 20
225.000
  0
VERTEX
  8
GT_1
 10
174.000
 20
225.800
  0
VERTEX
  8
GT_1
 10
172.300
 20
226.800
  0
VERTEX
  8
GT_1
 10
170.900
 20
226.000
  0
VERTEX
  8
GT_1
 10
173.500
 20
225.800
  0
VERTEX
  8
GT_1
 10
173.500
 20
225.100
  0
VERTEX
  8
GT_1
 10
172.300
 20
225.100
  0
VERTEX
  8
GT_1
 10
172.300
 20
225.800
  0
SEQEND
  0
POLYLINE
  8
GT_1
 66
1
 70
128
 40
1.00000
 41
1.00000
  0
VERTEX
  8
GT_1
 10
172.300
 20
225.800
  0
VERTEX
  8
GT_1
 10
188.800
 20
235.300
  0
SEQEND
  0
TEXT
  8
GT_1
 10
178.983
 20
231.414
 40
2.50000
  1
1
 50
30.0000
 41
0.980000
  7
HTX1
  0
POLYLINE
  8
GT_1
 66
1
 70
128
  0
VERTEX
  8
GT_1
 10
177.000
 20
233.800
  0
VERTEX
  8
GT_1
 10
179.300
 20
235.100
  0
VERTEX
  8
GT_1
 10
181.100
 20
232.100
  0
VERTEX
  8
GT_1
 10
178.800
 20
230.800
  0
VERTEX
  8
GT_1
 10
177.000
 20
233.800
  0
SEQEND
  0
POLYLINE
  8
GT_1
 66
1
 70
128
  0
VERTEX
  8
GT_1
 10
188.800
 20
235.300
  0
VERTEX
  8
GT_1
 10
188.800
 20
236.300
  0
VERTEX
  8
GT_1
 10
187.400
 20
236.100
  0
VERTEX
  8
GT_1
 10
187.100
 20
235.300
  0
VERTEX
  8
GT_1
 10
188.800
 20
234.300
  0
VERTEX
  8
GT_1
 10
190.200
 20
234.500
  0
VERTEX
  8
GT_1
 10
190.500
 20
235.300
  0
VERTEX
  8
GT_1
 10
188.800
 20
236.300
  0
VERTEX
  8
GT_1
 10
187.400
 20
235.500
  0
VERTEX
  8
GT_1
 10
190.000
 20
235.300
  0
VERTEX
  8
GT_1
 10
190.000
 20
234.600
  0
VERTEX
  8
GT_1
 10
188.800
 20
234.600
  0
VERTEX
  8
GT_1
 10
188.800
 20
235.300
  0
SEQEND
  0
POLYLINE
  8
GT_1
 66
1
 70
128
 40
1.00000
 41
1.00000
  0
VERTEX
  8
GT_1
 10
188.800
 20
235.300
  0
VERTEX
  8
GT_1
 10
194.000
 20
238.300
  0
SEQEND
  0
POLYLINE
  8
GT_1
 66
1
 70
128
  0
VERTEX
  8
GT_1
 10
197.300
 20
241.700
  0
VERTEX
  8
GT_1
 10
196.600
 20
239.800
  0
VERTEX
  8
GT_1
 10
197.900
 20
241.300
  0
SEQEND
  0
POLYLINE
  8
GT_1
 66
1
 70
128
  0
VERTEX
  8
GT_1
 10
196.600
 20
239.800
  0
VERTEX
  8
GT_1
 10
199.100
 20
244.100
  0
SEQEND
  0
TEXT
  8
GT_1
 10
199.600
 20
244.600
 40
2.50000
  1
4
 41
0.980000
  7
HTX1
  0
POLYLINE
  8
GT_1
 66
1
 70
128
  0
VERTEX
  8
GT_1
 10
199.100
 20
247.600
  0
VERTEX
  8
GT_1
 10
201.700
 20
247.600
  0
VERTEX
  8
GT_1
 10
201.700
 20
244.100
  0
VERTEX
  8
GT_1
 10
199.100
 20
244.100
  0
VERTEX
  8
GT_1
 10
199.100
 20
247.600
  0
SEQEND
  0
POLYLINE
  8
GT_1
 66
1
 70
128
  0
VERTEX
  8
GT_1
 10
168.000
 20
219.300
  0
VERTEX
  8
GT_1
 10
175.100
 20
215.200
  0
SEQEND
  0
POLYLINE
  8
GT_1
 66
1
 70
128
  0
VERTEX
  8
GT_1
 10
175.500
 20
217.100
  0
VERTEX
  8
GT_1
 10
174.000
 20
215.800
  0
VERTEX
  8
GT_1
 10
175.900
 20
216.500
  0
SEQEND
  0
POLYLINE
  8
GT_1
 66
1
 70
128
  0
VERTEX
  8
GT_1
 10
174.000
 20
215.800
  0
VERTEX
  8
GT_1
 10
184.100
 20
221.600
  0
SEQEND
  0
POLYLINE
  8
GT_1
 66
1
 70
128
  0
VERTEX
  8
GT_1
 10
200.100
 20
237.800
  0
VERTEX
  8
GT_1
 10
207.200
 20
233.700
  0
SEQEND
  0
POLYLINE
  8
GT_1
 66
1
 70
128
  0
VERTEX
  8
GT_1
 10
204.600
 20
233.000
  0
VERTEX
  8
GT_1
 10
206.100
 20
234.300
  0
VERTEX
  8
GT_1
 10
204.200
 20
233.600
  0
SEQEND
  0
POLYLINE
  8
GT_1
 66
1
 70
128
  0
VERTEX
  8
GT_1
 10
206.100
 20
234.300
  0
VERTEX
  8
GT_1
 10
184.100
 20
221.600
  0
SEQEND
  0
TEXT
  8
GT_1
 10
186.494
 20
219.684
 40
2.50000
  1
5305
 50
30.0000
 41
0.980000
  7
HTX1
  0
POLYLINE
  8
GT_1
 66
1
 70
128
 40
1.00000
 41
1.00000
  0
VERTEX
  8
GT_1
 10
194.000
 20
238.300
 42
-0.577127
  0
VERTEX
  8
GT_1
 10
196.600
 20
236.800
  0
SEQEND
  0
POLYLINE
  8
GT_1
 66
1
 70
128
 40
1.00000
 41
1.00000
  0
VERTEX
  8
GT_1
 10
196.600
 20
236.800
  0
VERTEX
  8
GT_1
 10
196.600
 20
230.800
  0
SEQEND
  0
POLYLINE
  8
GT_1
 66
1
 70
128
  0
VERTEX
  8
GT_1
 10
196.600
 20
230.800
  0
VERTEX
  8
GT_1
 10
195.700
 20
230.300
  0
VERTEX
  8
GT_1
 10
195.200
 20
231.600
  0
VERTEX
  8
GT_1
 10
195.700
 20
232.300
  0
VERTEX
  8
GT_1
 10
197.500
 20
231.300
  0
VERTEX
  8
GT_1
 10
198.000
 20
230.000
  0
VERTEX
  8
GT_1
 10
197.500
 20
229.300
  0
VERTEX
  8
GT_1
 10
195.700
 20
230.300
  0
VERTEX
  8
GT_1
 10
195.700
 20
232.000
  0
VERTEX
  8
GT_1
 10
197.200
 20
229.800
  0
VERTEX
  8
GT_1
 10
197.800
 20
230.100
  0
VERTEX
  8
GT_1
 10
197.200
 20
231.100
  0
VERTEX
  8
GT_1
 10
196.600
 20
230.800
  0
SEQEND
  0
POLYLINE
  8
GT_1
 66
1
 70
128
 40
1.00000
 41
1.00000
  0
VERTEX
  8
GT_1
 10
196.600
 20
230.800
  0
VERTEX
  8
GT_1
 10
196.600
 20
66.9000
  0
SEQEND
  0
TEXT
  8
GT_1
 10
195.050
 20
147.943
 40
2.50000
  1
1
 50
90.0000
 41
0.980000
  7
HTX1
  0
POLYLINE
  8
GT_1
 66
1
 70
128
  0
VERTEX
  8
GT_1
 10
192.100
 20
147.400
  0
VERTEX
  8
GT_1
 10
192.100
 20
150.100
  0
VERTEX
  8
GT_1
 10
195.500
 20
150.100
  0
VERTEX
  8
GT_1
 10
195.500
 20
147.400
  0
VERTEX
  8
GT_1
 10
192.100
 20
147.400
  0
SEQEND
  0
POLYLINE
  8
GT_1
 66
1
 70
128
  0
VERTEX
  8
GT_1
 10
196.600
 20
66.9000
  0
VERTEX
  8
GT_1
 10
195.700
 20
66.4000
  0
VERTEX
  8
GT_1
 10
195.200
 20
67.7000
  0
VERTEX
  8
GT_1
 10
195.700
 20
68.4000
  0
VERTEX
  8
GT_1
 10
197.500
 20
67.4000
  0
VERTEX
  8
GT_1
 10
198.000
 20
66.1000
  0
VERTEX
  8
GT_1
 10
197.500
 20
65.4000
  0
VERTEX
  8
GT_1
 10
195.700
 20
66.4000
  0
VERTEX
  8
GT_1
 10
195.700
 20
68.1000
  0
VERTEX
  8
GT_1
 10
197.200
 20
65.9000
  0
VERTEX
  8
GT_1
 10
197.800
 20
66.2000
  0
VERTEX
  8
GT_1
 10
197.200
 20
67.2000
  0
VERTEX
  8
GT_1
 10
196.600
 20
66.9000
  0
SEQEND
  0
POLYLINE
  8
GT_1
 66
1
 70
128
 40
1.00000
 41
1.00000
  0
VERTEX
  8
GT_1
 10
196.600
 20
66.9000
  0
VERTEX
  8
GT_1
 10
196.600
 20
60.9000
  0
SEQEND
  0
POLYLINE
  8
GT_1
 66
1
 70
128
  0
VERTEX
  8
GT_1
 10
196.600
 20
55.9000
  0
VERTEX
  8
GT_1
 10
196.600
 20
57.9000
  0
VERTEX
  8
GT_1
 10
195.900
 20
56.0000
  0
SEQEND
  0
POLYLINE
  8
GT_1
 66
1
 70
128
  0
VERTEX
  8
GT_1
 10
196.600
 20
57.9000
  0
VERTEX
  8
GT_1
 10
195.700
 20
53.0000
  0
SEQEND
  0
TEXT
  8
GT_1
 10
178.057
 20
53.5000
 40
2.50000
  1
4
 41
0.980000
  7
HTX1
  0
POLYLINE
  8
GT_1
 66
1
 70
128
  0
VERTEX
  8
GT_1
 10
177.600
 20
56.5000
  0
VERTEX
  8
GT_1
 10
180.200
 20
56.5000
  0
VERTEX
  8
GT_1
 10
180.200
 20
53.0000
  0
VERTEX
  8
GT_1
 10
177.600
 20
53.0000
  0
VERTEX
  8
GT_1
 10
177.600
 20
56.5000
  0
SEQEND
  0
TEXT
  8
GT_1
 10
178.057
 20
50.1667
 40
2.50000
  1
отм. +2300
 41
0.980000
  7
HTX1
  0
POLYLINE
  8
GT_1
 66
1
 70
128
  0
VERTEX
  8
GT_1
 10
200.100
 20
237.800
  0
VERTEX
  8
GT_1
 10
207.200
 20
233.700
  0
SEQEND
  0
POLYLINE
  8
GT_1
 66
1
 70
128
  0
VERTEX
  8
GT_1
 10
206.400
 20
232.300
  0
VERTEX
  8
GT_1
 10
206.100
 20
234.300
  0
VERTEX
  8
GT_1
 10
205.800
 20
232.300
  0
SEQEND
  0
POLYLINE
  8
GT_1
 66
1
 70
128
  0
VERTEX
  8
GT_1
 10
206.100
 20
234.300
  0
VERTEX
  8
GT_1
 10
206.100
 20
139.900
  0
SEQEND
  0
POLYLINE
  8
GT_1
 66
1
 70
128
  0
VERTEX
  8
GT_1
 10
200.100
 20
55.9000
  0
VERTEX
  8
GT_1
 10
207.200
 20
51.8000
  0
SEQEND
  0
POLYLINE
  8
GT_1
 66
1
 70
128
  0
VERTEX
  8
GT_1
 10
205.800
 20
54.4000
  0
VERTEX
  8
GT_1
 10
206.100
 20
52.4000
  0
VERTEX
  8
GT_1
 10
206.400
 20
54.4000
  0
SEQEND
  0
POLYLINE
  8
GT_1
 66
1
 70
128
  0
VERTEX
  8
GT_1
 10
206.100
 20
52.4000
  0
VERTEX
  8
GT_1
 10
206.100
 20
139.900
  0
SEQEND
  0
TEXT
  8
GT_1
 10
208.982
 20
138.850
 40
2.50000
  1
2900
 50
90.0000
 41
0.980000
  7
HTX1
  0
POLYLINE
  8
GT_1
 66
1
 70
128
 40
1.00000
 41
1.00000
  0
VERTEX
  8
GT_1
 10
196.600
 20
60.9000
 42
-0.577557
  0
VERTEX
  8
GT_1
 10
194.000
 20
59.4000
  0
SEQEND
  0
POLYLINE
  8
GT_1
 66
1
 70
128
 40
1.00000
 41
1.00000
  0
VERTEX
  8
GT_1
 10
194.000
 20
59.4000
  0
VERTEX
  8
GT_1
 10
188.800
 20
62.4000
  0
SEQEND
  0
POLYLINE
  8
GT_1
 66
1
 70
128
  0
VERTEX
  8
GT_1
 10
188.800
 20
62.4000
  0
VERTEX
  8
GT_1
 10
187.900
 20
61.9000
  0
VERTEX
  8
GT_1
 10
188.800
 20
60.7000
  0
VERTEX
  8
GT_1
 10
189.700
 20
60.9000
  0
VERTEX
  8
GT_1
 10
189.700
 20
62.9000
  0
VERTEX
  8
GT_1
 10
188.800
 20
64.1000
  0
VERTEX
  8
GT_1
 10
187.900
 20
63.9000
  0
VERTEX
  8
GT_1
 10
187.900
 20
61.9000
  0
VERTEX
  8
GT_1
 10
189.400
 20
61.1000
  0
VERTEX
  8
GT_1
 10
188.200
 20
63.4000
  0
VERTEX
  8
GT_1
 10
188.800
 20
63.7000
  0
VERTEX
  8
GT_1
 10
189.400
 20
62.7000
  0
VERTEX
  8
GT_1
 10
188.800
 20
62.4000
  0
SEQEND
  0
POLYLINE
  8
GT_1
 66
1
 70
128
 40
1.00000
 41
1.00000
  0
VERTEX
  8
GT_1
 10
188.800
 20
62.4000
  0
VERTEX
  8
GT_1
 10
107.100
 20
109.600
  0
SEQEND
  0
POLYLINE
  8
GT_1
 66
1
 70
128
  0
VERTEX
  8
GT_1
 10
106.400
 20
107.700
  0
VERTEX
  8
GT_1
 10
107.100
 20
109.600
  0
VERTEX
  8
GT_1
 10
105.800
 20
108.100
  0
SEQEND
  0
POLYLINE
  8
GT_1
 66
1
 70
128
  0
VERTEX
  8
GT_1
 10
107.100
 20
109.600
  0
VERTEX
  8
GT_1
 10
102.600
 20
101.800
  0
SEQEND
  0
TEXT
  8
GT_1
 10
98.6714
 20
102.300
 40
2.50000
  1
 6
 41
0.980000
  7
HTX1
  0
POLYLINE
  8
GT_1
 66
1
 70
128
  0
VERTEX
  8
GT_1
 10
98.2000
 20
105.300
  0
VERTEX
  8
GT_1
 10
102.500
 20
105.300
  0
VERTEX
  8
GT_1
 10
102.500
 20
101.800
  0
VERTEX
  8
GT_1
 10
98.2000
 20
101.800
  0
VERTEX
  8
GT_1
 10
98.2000
 20
105.300
  0
SEQEND
  0
POLYLINE
  8
GT_1
 66
1
 70
128
 40
1.00000
 41
1.00000
  0
VERTEX
  8
GT_1
 10
107.100
 20
109.600
  0
VERTEX
  8
GT_1
 10
95.8000
 20
116.100
  0
SEQEND
  0
TEXT
  8
GT_1
 10
101.433
 20
114.571
 40
2.50000
  1
1
 50
-30.0000
 41
0.980000
  7
HTX1
  0
POLYLINE
  8
GT_1
 66
1
 70
128
  0
VERTEX
  8
GT_1
 10
102.500
 20
117.400
  0
VERTEX
  8
GT_1
 10
104.800
 20
116.100
  0
VERTEX
  8
GT_1
 10
103.000
 20
113.100
  0
VERTEX
  8
GT_1
 10
100.800
 20
114.400
  0
VERTEX
  8
GT_1
 10
102.500
 20
117.400
  0
SEQEND
  0
POLYLINE
  8
GT_1
 66
1
 70
128
  0
VERTEX
  8
GT_1
 10
95.8000
 20
116.100
  0
VERTEX
  8
GT_1
 10
94.9000
 20
115.600
  0
VERTEX
  8
GT_1
 10
95.8000
 20
114.400
  0
VERTEX
  8
GT_1
 10
96.7000
 20
114.600
  0
VERTEX
  8
GT_1
 10
96.7000
 20
116.600
  0
VERTEX
  8
GT_1
 10
95.8000
 20
117.800
  0
VERTEX
  8
GT_1
 10
94.9000
 20
117.600
  0
VERTEX
  8
GT_1
 10
94.9000
 20
115.600
  0
VERTEX
  8
GT_1
 10
96.4000
 20
114.800
  0
VERTEX
  8
GT_1
 10
95.2000
 20
117.100
  0
VERTEX
  8
GT_1
 10
95.8000
 20
117.400
  0
VERTEX
  8
GT_1
 10
96.4000
 20
116.400
  0
VERTEX
  8
GT_1
 10
95.8000
 20
116.100
  0
SEQEND
  0
POLYLINE
  8
GT_1
 66
1
 70
128
 40
1.00000
 41
1.00000
  0
VERTEX
  8
GT_1
 10
95.8000
 20
116.100
  0
VERTEX
  8
GT_1
 10
88.0000
 20
120.600
  0
SEQEND
  0
POLYLINE
  8
GT_1
 66
1
 70
128
  0
VERTEX
  8
GT_1
 10
88.7000
 20
122.500
  0
VERTEX
  8
GT_1
 10
88.0000
 20
120.600
  0
VERTEX
  8
GT_1
 10
89.3000
 20
122.100
  0
SEQEND
  0
POLYLINE
  8
GT_1
 66
1
 70
128
  0
VERTEX
  8
GT_1
 10
88.0000
 20
120.600
  0
VERTEX
  8
GT_1
 10
96.5000
 20
135.300
  0
SEQEND
  0
TEXT
  8
GT_1
 10
97.0000
 20
135.800
 40
2.50000
  1
3
 41
0.980000
  7
HTX1
  0
POLYLINE
  8
GT_1
 66
1
 70
128
  0
VERTEX
  8
GT_1
 10
96.5000
 20
138.800
  0
VERTEX
  8
GT_1
 10
99.1000
 20
138.800
  0
VERTEX
  8
GT_1
 10
99.1000
 20
135.300
  0
VERTEX
  8
GT_1
 10
96.5000
 20
135.300
  0
VERTEX
  8
GT_1
 10
96.5000
 20
138.800
  0
SEQEND
  0
TEXT
  8
GT_1
 10
97.0000
 20
132.467
 40
2.50000
  1
100x65 Ду
 41
0.980000
  7
HTX1
  0
POLYLINE
  8
GT_1
 66
1
 70
128
  0
VERTEX
  8
GT_1
 10
196.600
 20
61.9000
  0
VERTEX
  8
GT_1
 10
196.600
 20
70.1000
  0
SEQEND
  0
POLYLINE
  8
GT_1
 66
1
 70
128
  0
VERTEX
  8
GT_1
 10
194.700
 20
69.6000
  0
VERTEX
  8
GT_1
 10
196.600
 20
68.9000
  0
VERTEX
  8
GT_1
 10
195.100
 20
70.2000
  0
SEQEND
  0
POLYLINE
  8
GT_1
 66
1
 70
128
  0
VERTEX
  8
GT_1
 10
196.600
 20
68.9000
  0
VERTEX
  8
GT_1
 10
139.300
 20
102.000
  0
SEQEND
  0
POLYLINE
  8
GT_1
 66
1
 70
128
  0
VERTEX
  8
GT_1
 10
88.0000
 20
122.600
  0
VERTEX
  8
GT_1
 10
88.0000
 20
132.800
  0
SEQEND
  0
POLYLINE
  8
GT_1
 66
1
 70
128
  0
VERTEX
  8
GT_1
 10
89.9000
 20
130.900
  0
VERTEX
  8
GT_1
 10
88.0000
 20
131.600
  0
VERTEX
  8
GT_1
 10
89.5000
 20
130.300
  0
SEQEND
  0
POLYLINE
  8
GT_1
 66
1
 70
128
  0
VERTEX
  8
GT_1
 10
88.0000
 20
131.600
  0
VERTEX
  8
GT_1
 10
139.300
 20
102.000
  0
SEQEND
  0
TEXT
  8
GT_1
 10
138.831
 20
103.241
 40
2.50000
  1
5957
 50
-30.0000
 41
0.980000
  7
HTX1
  0
POLYLINE
  8
GT_1
 66
1
 70
128
 40
1.00000
 41
1.00000
  0
VERTEX
  8
GT_1
 10
88.0000
 20
120.600
  0
VERTEX
  8
GT_1
 10
88.0000
 20
111.600
  0
SEQEND
  0
POLYLINE
  8
GT_1
 66
1
 70
128
  0
VERTEX
  8
GT_1
 10
86.3000
 20
121.600
  0
VERTEX
  8
GT_1
 10
77.4000
 20
126.700
  0
SEQEND
  0
POLYLINE
  8
GT_1
 66
1
 70
128
  0
VERTEX
  8
GT_1
 10
78.8000
 20
124.100
  0
VERTEX
  8
GT_1
 10
78.5000
 20
126.100
  0
VERTEX
  8
GT_1
 10
78.2000
 20
124.100
  0
SEQEND
  0
POLYLINE
  8
GT_1
 66
1
 70
128
  0
VERTEX
  8
GT_1
 10
78.5000
 20
126.100
  0
VERTEX
  8
GT_1
 10
78.5000
 20
119.900
  0
SEQEND
  0
POLYLINE
  8
GT_1
 66
1
 70
128
  0
VERTEX
  8
GT_1
 10
84.5000
 20
113.600
  0
VERTEX
  8
GT_1
 10
77.4000
 20
117.700
  0
SEQEND
  0
POLYLINE
  8
GT_1
 66
1
 70
128
  0
VERTEX
  8
GT_1
 10
78.2000
 20
119.100
  0
VERTEX
  8
GT_1
 10
78.5000
 20
117.100
  0
VERTEX
  8
GT_1
 10
78.8000
 20
119.100
  0
SEQEND
  0
POLYLINE
  8
GT_1
 66
1
 70
128
  0
VERTEX
  8
GT_1
 10
78.5000
 20
117.100
  0
VERTEX
  8
GT_1
 10
78.5000
 20
119.900
  0
SEQEND
  0
TEXT
  8
GT_1
 10
77.6180
 20
120.957
 40
2.50000
  1
80
 50
90.0000
 41
0.980000
  7
HTX1
  0
POLYLINE
  8
GT_1
 66
1
 70
128
  6
GT100
  0
VERTEX
  8
GT_1
  6
GT100
 10
88.0000
 20
111.600
  0
VERTEX
  8
GT_1
  6
GT100
 10
88.9000
 20
110.100
  0
VERTEX
  8
GT_1
  6
GT100
 10
89.4000
 20
110.800
  0
VERTEX
  8
GT_1
  6
GT100
 10
88.9000
 20
112.100
  0
VERTEX
  8
GT_1
  6
GT100
 10
87.1000
 20
113.100
  0
VERTEX
  8
GT_1
  6
GT100
 10
86.6000
 20
112.400
  0
VERTEX
  8
GT_1
  6
GT100
 10
87.1000
 20
111.100
  0
VERTEX
  8
GT_1
  6
GT100
 10
88.9000
 20
110.100
  0
VERTEX
  8
GT_1
  6
GT100
 10
88.9000
 20
111.800
  0
VERTEX
  8
GT_1
  6
GT100
 10
87.4000
 20
111.300
  0
VERTEX
  8
GT_1
  6
GT100
 10
86.8000
 20
112.300
  0
VERTEX
  8
GT_1
  6
GT100
 10
87.4000
 20
112.600
  0
VERTEX
  8
GT_1
  6
GT100
 10
88.0000
 20
111.600
  0
SEQEND
  0
POLYLINE
  8
GT_1
 66
1
 70
128
  0
VERTEX
  8
GT_1
 10
88.0000
 20
109.600
  0
VERTEX
  8
GT_1
 10
88.0000
 20
111.600
  0
VERTEX
  8
GT_1
 10
87.3000
 20
109.700
  0
SEQEND
  0
POLYLINE
  8
GT_1
 66
1
 70
128
  0
VERTEX
  8
GT_1
 10
88.0000
 20
111.600
  0
VERTEX
  8
GT_1
 10
86.4000
 20
102.700
  0
SEQEND
  0
TEXT
  8
GT_1
 10
61.9000
 20
103.200
 40
2.50000
  1
См.
 41
0.980000
  7
HTX1
  0
TEXT
  8
GT_1
 10
61.9000
 20
99.8667
 40
2.50000
  1
W02-V03-002/B3
 41
0.980000
  7
HTX1
  0
TEXT
  8
GT_1
 10
61.9000
 20
96.5333
 40
2.50000
  1
E 47525
 41
0.980000
  7
HTX1
  0
TEXT
  8
GT_1
 10
61.9000
 20
93.2000
 40
2.50000
  1
N 6350
 41
0.980000
  7
HTX1
  0
TEXT
  8
GT_1
 10
61.9000
 20
89.8667
 40
2.50000
  1
отм. +2220
 41
0.980000
  7
HTX1
  0
POLYLINE
  8
GT_1
 66
1
 70
128
 40
1.00000
 41
1.00000
  0
VERTEX
  8
GT_1
 10
88.0000
 20
120.600
  0
VERTEX
  8
GT_1
 10
80.2000
 20
125.100
  0
SEQEND
  0
POLYLINE
  8
GT_1
 66
1
 70
128
  0
VERTEX
  8
GT_1
 10
80.2000
 20
125.100
  0
VERTEX
  8
GT_1
 10
79.3000
 20
124.600
  0
VERTEX
  8
GT_1
 10
80.2000
 20
123.400
  0
VERTEX
  8
GT_1
 10
81.1000
 20
123.600
  0
VERTEX
  8
GT_1
 10
81.1000
 20
125.600
  0
VERTEX
  8
GT_1
 10
80.2000
 20
126.800
  0
VERTEX
  8
GT_1
 10
79.3000
 20
126.600
  0
VERTEX
  8
GT_1
 10
79.3000
 20
124.600
  0
VERTEX
  8
GT_1
 10
80.8000
 20
123.800
  0
VERTEX
  8
GT_1
 10
79.6000
 20
126.100
  0
VERTEX
  8
GT_1
 10
80.2000
 20
126.400
  0
VERTEX
  8
GT_1
 10
80.8000
 20
125.400
  0
VERTEX
  8
GT_1
 10
80.2000
 20
125.100
  0
SEQEND
  0
POLYLINE
  8
GT_1
 66
1
 70
128
 40
1.00000
 41
1.00000
  0
VERTEX
  8
GT_1
 10
80.2000
 20
125.100
  0
VERTEX
  8
GT_1
 10
67.3000
 20
132.600
  0
SEQEND
  0
POLYLINE
  8
GT_1
 66
1
 70
128
  0
VERTEX
  8
GT_1
 10
67.3000
 20
132.600
  0
VERTEX
  8
GT_1
 10
67.3000
 20
130.800
  0
VERTEX
  8
GT_1
 10
62.5000
 20
135.400
  0
VERTEX
  8
GT_1
 10
67.3000
 20
134.200
  0
VERTEX
  8
GT_1
 10
67.3000
 20
131.000
  0
VERTEX
  8
GT_1
 10
62.9000
 20
135.100
  0
VERTEX
  8
GT_1
 10
67.3000
 20
134.100
  0
VERTEX
  8
GT_1
 10
67.3000
 20
131.300
  0
VERTEX
  8
GT_1
 10
63.4000
 20
134.800
  0
VERTEX
  8
GT_1
 10
67.3000
 20
133.800
  0
VERTEX
  8
GT_1
 10
67.3000
 20
131.500
  0
VERTEX
  8
GT_1
 10
63.9000
 20
134.600
  0
VERTEX
  8
GT_1
 10
67.3000
 20
133.600
  0
VERTEX
  8
GT_1
 10
67.3000
 20
131.700
  0
VERTEX
  8
GT_1
 10
64.3000
 20
134.300
  0
VERTEX
  8
GT_1
 10
67.3000
 20
133.400
  0
VERTEX
  8
GT_1
 10
67.3000
 20
131.900
  0
VERTEX
  8
GT_1
 10
64.8000
 20
134.000
  0
VERTEX
  8
GT_1
 10
67.3000
 20
133.200
  0
VERTEX
  8
GT_1
 10
67.3000
 20
132.200
  0
VERTEX
  8
GT_1
 10
65.2000
 20
133.800
  0
VERTEX
  8
GT_1
 10
67.3000
 20
132.900
  0
VERTEX
  8
GT_1
 10
67.3000
 20
132.400
  0
VERTEX
  8
GT_1
 10
65.7000
 20
133.500
  0
VERTEX
  8
GT_1
 10
67.3000
 20
132.700
  0
VERTEX
  8
GT_1
 10
67.3000
 20
132.600
  0
VERTEX
  8
GT_1
 10
62.5000
 20
135.400
  0
SEQEND
  0
POLYLINE
  8
GT_1
 66
1
 70
128
 40
1.00000
 41
1.00000
  0
VERTEX
  8
GT_1
 10
62.5000
 20
135.400
  0
VERTEX
  8
GT_1
 10
49.6000
 20
142.900
  0
SEQEND
  0
TEXT
  8
GT_1
 10
56.0327
 20
140.871
 40
2.50000
  1
1
 50
-30.0000
 41
0.980000
  7
HTX1
  0
POLYLINE
  8
GT_1
 66
1
 70
128
  0
VERTEX
  8
GT_1
 10
57.1000
 20
143.700
  0
VERTEX
  8
GT_1
 10
59.4000
 20
142.400
  0
VERTEX
  8
GT_1
 10
57.6000
 20
139.400
  0
VERTEX
  8
GT_1
 10
55.4000
 20
140.700
  0
VERTEX
  8
GT_1
 10
57.1000
 20
143.700
  0
SEQEND
  0
POLYLINE
  8
GT_1
 66
1
 70
128
  0
VERTEX
  8
GT_1
 10
49.6000
 20
142.900
  0
VERTEX
  8
GT_1
 10
48.7000
 20
142.400
  0
VERTEX
  8
GT_1
 10
49.6000
 20
141.200
  0
VERTEX
  8
GT_1
 10
50.5000
 20
141.400
  0
VERTEX
  8
GT_1
 10
50.5000
 20
143.400
  0
VERTEX
  8
GT_1
 10
49.6000
 20
144.600
  0
VERTEX
  8
GT_1
 10
48.7000
 20
144.400
  0
VERTEX
  8
GT_1
 10
48.7000
 20
142.400
  0
VERTEX
  8
GT_1
 10
50.2000
 20
141.600
  0
VERTEX
  8
GT_1
 10
49.0000
 20
143.900
  0
VERTEX
  8
GT_1
 10
49.6000
 20
144.200
  0
VERTEX
  8
GT_1
 10
50.2000
 20
143.200
  0
VERTEX
  8
GT_1
 10
49.6000
 20
142.900
  0
SEQEND
  0
POLYLINE
  8
GT_1
 66
1
 70
128
 40
1.00000
 41
1.00000
  0
VERTEX
  8
GT_1
 10
49.6000
 20
142.900
  0
VERTEX
  8
GT_1
 10
44.4000
 20
145.900
  0
SEQEND
  0
POLYLINE
  8
GT_1
 66
1
 70
128
  0
VERTEX
  8
GT_1
 10
39.8000
 20
147.100
  0
VERTEX
  8
GT_1
 10
41.8000
 20
147.400
  0
VERTEX
  8
GT_1
 10
39.8000
 20
147.700
  0
SEQEND
  0
POLYLINE
  8
GT_1
 66
1
 70
128
  0
VERTEX
  8
GT_1
 10
41.8000
 20
147.400
  0
VERTEX
  8
GT_1
 10
36.8000
 20
147.400
  0
SEQEND
  0
TEXT
  8
GT_1
 10
34.5857
 20
147.900
 40
2.50000
  1
4
 41
0.980000
  7
HTX1
  0
POLYLINE
  8
GT_1
 66
1
 70
128
  0
VERTEX
  8
GT_1
 10
34.1000
 20
150.900
  0
VERTEX
  8
GT_1
 10
36.7000
 20
150.900
  0
VERTEX
  8
GT_1
 10
36.7000
 20
147.400
  0
VERTEX
  8
GT_1
 10
34.1000
 20
147.400
  0
VERTEX
  8
GT_1
 10
34.1000
 20
150.900
  0
SEQEND
  0
POLYLINE
  8
GT_1
 66
1
 70
128
  0
VERTEX
  8
GT_1
 10
88.0000
 20
122.600
  0
VERTEX
  8
GT_1
 10
88.0000
 20
132.800
  0
SEQEND
  0
POLYLINE
  8
GT_1
 66
1
 70
128
  0
VERTEX
  8
GT_1
 10
86.1000
 20
132.300
  0
VERTEX
  8
GT_1
 10
88.0000
 20
131.600
  0
VERTEX
  8
GT_1
 10
86.5000
 20
132.900
  0
SEQEND
  0
POLYLINE
  8
GT_1
 66
1
 70
128
  0
VERTEX
  8
GT_1
 10
88.0000
 20
131.600
  0
VERTEX
  8
GT_1
 10
61.9000
 20
146.700
  0
SEQEND
  0
POLYLINE
  8
GT_1
 66
1
 70
128
  0
VERTEX
  8
GT_1
 10
41.8000
 20
151.400
  0
VERTEX
  8
GT_1
 10
41.8000
 20
159.600
  0
SEQEND
  0
POLYLINE
  8
GT_1
 66
1
 70
128
  0
VERTEX
  8
GT_1
 10
43.7000
 20
157.700
  0
VERTEX
  8
GT_1
 10
41.8000
 20
158.400
  0
VERTEX
  8
GT_1
 10
43.3000
 20
157.100
  0
SEQEND
  0
POLYLINE
  8
GT_1
 66
1
 70
128
  0
VERTEX
  8
GT_1
 10
41.8000
 20
158.400
  0
VERTEX
  8
GT_1
 10
61.9000
 20
146.700
  0
SEQEND
  0
TEXT
  8
GT_1
 10
61.4308
 20
147.991
 40
2.50000
  1
1177
 50
-30.0000
 41
0.980000
  7
HTX1
  0
POLYLINE
  8
GT_1
 66
1
 70
128
 40
1.00000
 41
1.00000
  0
VERTEX
  8
GT_1
 10
44.4000
 20
145.900
 42
-0.577360
  0
VERTEX
  8
GT_1
 10
44.4000
 20
148.900
  0
SEQEND
  0
POLYLINE
  8
GT_1
 66
1
 70
128
 40
1.00000
 41
1.00000
  0
VERTEX
  8
GT_1
 10
44.4000
 20
148.900
  0
VERTEX
  8
GT_1
 10
49.6000
 20
151.900
  0
SEQEND
  0
POLYLINE
  8
GT_1
 66
1
 70
128
  0
VERTEX
  8
GT_1
 10
45.3000
 20
151.400
  0
VERTEX
  8
GT_1
 10
47.0000
 20
150.400
  0
VERTEX
  8
GT_1
 10
45.7000
 20
151.900
  0
SEQEND
  0
POLYLINE
  8
GT_1
 66
1
 70
128
  0
VERTEX
  8
GT_1
 10
47.0000
 20
150.400
  0
VERTEX
  8
GT_1
 10
40.1000
 20
156.200
  0
SEQEND
  0
TEXT
  8
GT_1
 10
29.3143
 20
156.700
 40
2.50000
  1
100 Ду
 41
0.980000
  7
HTX1
  0
POLYLINE
  8
GT_1
 66
1
 70
128
  0
VERTEX
  8
GT_1
 10
41.8000
 20
151.400
  0
VERTEX
  8
GT_1
 10
41.8000
 20
159.600
  0
SEQEND
  0
POLYLINE
  8
GT_1
 66
1
 70
128
  0
VERTEX
  8
GT_1
 10
43.3000
 20
159.700
  0
VERTEX
  8
GT_1
 10
41.8000
 20
158.400
  0
VERTEX
  8
GT_1
 10
43.7000
 20
159.100
  0
SEQEND
  0
POLYLINE
  8
GT_1
 66
1
 70
128
  0
VERTEX
  8
GT_1
 10
41.8000
 20
158.400
  0
VERTEX
  8
GT_1
 10
43.5000
 20
159.400
  0
SEQEND
  0
POLYLINE
  8
GT_1
 66
1
 70
128
  0
VERTEX
  8
GT_1
 10
49.6000
 20
155.900
  0
VERTEX
  8
GT_1
 10
49.6000
 20
164.100
  0
SEQEND
  0
POLYLINE
  8
GT_1
 66
1
 70
128
  0
VERTEX
  8
GT_1
 10
48.1000
 20
161.600
  0
VERTEX
  8
GT_1
 10
49.6000
 20
162.900
  0
VERTEX
  8
GT_1
 10
47.7000
 20
162.200
  0
SEQEND
  0
POLYLINE
  8
GT_1
 66
1
 70
128
  0
VERTEX
  8
GT_1
 10
49.6000
 20
162.900
  0
VERTEX
  8
GT_1
 10
43.5000
 20
159.400
  0
SEQEND
  0
TEXT
  8
GT_1
 10
43.9731
 20
160.641
 40
2.50000
  1
150
 50
30.0000
 41
0.980000
  7
HTX1
  0
POLYLINE
  8
GT_1
 66
1
 70
128
  0
VERTEX
  8
GT_1
 10
49.6000
 20
151.900
  0
VERTEX
  8
GT_1
 10
50.5000
 20
151.400
  0
VERTEX
  8
GT_1
 10
49.6000
 20
150.200
  0
VERTEX
  8
GT_1
 10
48.7000
 20
150.400
  0
VERTEX
  8
GT_1
 10
48.7000
 20
152.400
  0
VERTEX
  8
GT_1
 10
49.6000
 20
153.600
  0
VERTEX
  8
GT_1
 10
50.5000
 20
153.400
  0
VERTEX
  8
GT_1
 10
50.5000
 20
151.400
  0
VERTEX
  8
GT_1
 10
49.0000
 20
150.600
  0
VERTEX
  8
GT_1
 10
50.2000
 20
152.900
  0
VERTEX
  8
GT_1
 10
49.6000
 20
153.200
  0
VERTEX
  8
GT_1
 10
49.0000
 20
152.200
  0
VERTEX
  8
GT_1
 10
49.6000
 20
151.900
  0
SEQEND
  0
POLYLINE
  8
GT_1
 66
1
 70
128
  6
GT110
  0
VERTEX
  8
GT_1
  6
GT110
 10
49.6000
 20
151.900
  0
VERTEX
  8
GT_1
  6
GT110
 10
63.5000
 20
159.900
  0
SEQEND
  0
POLYLINE
  8
GT_1
 66
1
 70
128
  0
VERTEX
  8
GT_1
 10
64.8000
 20
161.400
  0
VERTEX
  8
GT_1
 10
63.5000
 20
159.900
  0
VERTEX
  8
GT_1
 10
65.2000
 20
160.900
  0
SEQEND
  0
POLYLINE
  8
GT_1
 66
1
 70
128
  0
VERTEX
  8
GT_1
 10
63.5000
 20
159.900
  0
VERTEX
  8
GT_1
 10
67.3000
 20
163.100
  0
SEQEND
  0
TEXT
  8
GT_1
 10
67.8000
 20
163.600
 40
2.50000
  1
См.
 41
0.980000
  7
HTX1
  0
TEXT
  8
GT_1
 10
67.8000
 20
160.267
 40
2.50000
  1
~l  3
 41
0.980000
  7
HTX1
  0
ENDSEC
  0
EOF
